Pantera – Proud To Be Loud tab

Pantera - Proud to be Loud

From the Power Metal album, tabbed by Oj5000

This sounds mostly correct, but the main solo is missing, sorry about that.
If anyone can help out, it would be appreciated.

Contact: o.tearle@gmail.com

Gtr I (E A D G B E) - 'Guitar 1'
Gtr II (E A D G B E) - 'Guitar 2'

IntroGuitar I||-------------|-------------|-------------|------|||o------------|-------------|-------------|------|||-----------3-|-----------3-|-----------3-|------|||--5--5-3-5-3-|--5--5-3-5-3-|--5--5-3-5-3-|-8-10-|||o-5--5-3-5---|--5--5-3-5---|--5--5-3-5---|-6-8--|||--3--3-------|--3--3-------|--3--3-------|------| x2
Intro soloGuitar II||-17b-17--14-17-15-14-------------|-------------------------|||---------------------14-17-15-14-|-------------14-17-15-14-|||---------------------------------|-14-17-15-14-------------|||---------------------------------|-------------------------|||---------------------------------|-------------------------|||---------------------------------|-------------------------|
|-14-17-15-14-------------|-----------------||-------------14-17-15-14-|-----------------||-------------------------|-14-17-15-14--12-||-------------------------|-----------------||-------------------------|-----------------||-------------------------|-----------------|
Main riff
||-------------|-------------|-------------|-----------|||-------------|-------------|-------------|-----------|||-------------|-------------|-----3-----3-|-----5-3---|||-5-5-5-5-5-5-|-5-5-5-5-5-5-|-3-5-3-3-5-3-|-3-5-5-3-5-|||-5-5-5-5-5-5-|-5-5-5-5-5-5-|-3-5---3-5---|-3-5-----5-|||-3-3-3-3-3-3-|-3-3-3-3-3-3-|-------------|-----------|
Pre Chorus "I've seen it, I've done it..."
||-------------------|-------------|---------|||-------------------|-------------|---------|||-5-5--5-5--5p3---5-|----6s5-3----|-6s5-3---|||-5-5--5-5--5p3-5-5-|-5--6s5-3-5--|-6s5-3-5-| x2||-3-3--3-3------5---|-5--------5--|-------5-|||-------------------|-3-------(3)-|-------3-|
||--------------------------|||--------------------------|||--------------------------|||-8-8-8--10-10-10-10-10-10-|||-6-6-6--8--8--8--8--8--8--|||--------------------------|
Chorus "I'm proud to be loud.."
||------------------|-------------------|-----------------|||------------------|-----------3-------|-----------------|||----------3-------|--5--5-3-5-3-------|-----------------|||-5--5-3-5-3-------|--5--5-3-5----8-10-|-5-5-5-5-5-5-(5)-|||-5--5-3-5----8-10-|--3-----------6-8--|-5-5-5-5-5-5-(5)-|||-3--3--------6-8--|-------------------|-3-3-3-3-3-3-(3)-|
|-----------------|------------------------|---------------||-----------------|------------------------|---------------||-----------------|------------------------|-8-------------||-8-8-8-8-8-8-(8)-|-10-10-10-10-10-10-(10)-|-8-------------||-8-8-8-8-8-8-(8)-|-10-10-10-10-10-10-(10)-|-6-6-5---------||-6-6-6-6-6-6-(6)-|-8--8--8--8--8--8--(8)--|-------8-6-5-3-|
Main Solo Guitar I
||-------------|-----------------------|||-------------|-----------------------|||----6s5-3----|-----------------------|||----6s5-3-5--|-5-5-5-5-5-5-5-5-5-5-5-|||----------5--|-5-5-5-5-5-5-5-5-5-5-5-|||---------(3)-|-3-3-3-3-3-3-3-3-3-3-3-|
Then at the end of the solo
||----------|----------|----------|---------|----|||----------|----------|----------|---------|----|||-6s5-3----|-6s5-3----|-6s5-3----|-6s5-3-8-|-10-|||-6s5-3-5--|-6s5-3-8--|-6s5-3-10-|-6s5-3-8-|-10-|||-------5--|-------8--|-------10-|-------6-|-8--|||------(3)-|-------6--|-------8--|---------|----|
Outro
||-------------|-----------------------|||-------------|-----------------------|||----6s5-3----|-----------------------|||----6s5-3-5--|-5-5-5-5-5-5-5-5-5-5-5-|||----------5--|-5-5-5-5-5-5-5-5-5-5-5-|||---------(3)-|-3-3-3-3-3-3-3-3-3-3-3-|
Please rate this tab:
x1.0