Pantera - Yesterday Dont Mean Shit tab

Artist- Pantera
Song- yesterday don't mean shit

tuning - d a d g b e

tabbed by - Pantera_93
e-mail - Bodomchild93@hotmail.com

Beginning- slide from first fret

this was my first tab...i tried my best...its the best i can do...if u find any problems
...email me and tell me about em


|---------------------------------|----------------------------||---------------------------------|----------------------------||---------------------------------|----------------------------||---------------------------------|----------------------------||---------------------------------|----------------------------||--0--0-0-7p0-4p0-0-0-0-0-0-0-0---|--0--0-0-1h0-4h0------------|Repeat
^^^You get the hint^^^
|-------------------------------------------------------------||-------------------------------------------------------------||-------------------------------------------------------------||-------------------------------------------------------------||-------------------------------------------------------------||--5-5-5-5-5-6-6-6-6-6----------------------------------------|
|---------------------------------|----------------------------||---------------------------------|----------------------------||---------------------------------|----------------------------||---------------------------------|----------------------------||---------------------------------|----------------------------||--0--0-0-7p0-4p0-0-0-0-0-0-0-0---|--0--0-0-1h0-4h0------------|
|-------------------------------------------------------------||-------------------------------------------------------------||-------------------------------------------------------------||-------------------------------------------------------------||-------------------------------------------------------------||--5-5-5-5-5-6-6-6-6-6----------------------------------------|
|---------------------------------|----------------------------||---------------------------------|----------------------------||---------------------------------|----------------------------||---------------------------------|----------------------------||---------------------------------|----------------------------||--0--0-0-7p0-4p0-0-0-0-0-0-0-0---|--0--0-0-1h0-4h0------------|
|-------------------------------------------------------------||-------------------------------------------------------------||-------------------------------------------------------------||-------------------------------------------------------------||-------------------------------------------------------------||--5-5-5-5-5-6-6-6-6-6----------------------------------------|
|---------------------------------|----------------------------||---------------------------------|----------------------------||---------------------------------|----------------------------||---------------------------------|----------------------------||---------------------------------|----------------------------||--0--0-0-7p0-4p0-0-0-0-0-0-0-0---|--0--0-0-1h0-4h0------------|
|--------------------------------------------------------------||--------------------------------------------------------------||--------------------------------------------------------------||--------------------------------------------------------------||--------------------------------------------------------------||--3-3-3-3-3-1-1-1-1-1-----------------------------------------|
|---------------------------------|----------------------------||---------------------------------|----------------------------||---------------------------------|----------------------------||---------------------------------|----------------------------||---------------------------------|----------------------------||--0--0-0-7p0-4p0-0-0-0-0-0-0-0---|--0--0-0-1h0-4h0------------|repeat
|--------------------|--------------------|---------------------||--------------------|--------------------|---------------------||--------------------|--------------------|---------------------||--------------------|--------------------|---------------------||--------------------|--------------------|---------------------||---0--10-12---0-5-7-|---0--10-12---0-5-7-|-13--13--12----------|repeat
|--------------------|--------------------|---------------------||--------------------|--------------------|---------------------||--------------------|--------------------|---------------------||--------------------|--------------------|---------------------||--------------------|--------------------|---------------------||---0--10-12---0-5-7-|---0--10-12---0-5-7-|-10-10--9------------|
|--------------------|--------------------|---------------------||--------------------|--------------------|---------------------||--------------------|--------------------|---------------------||--------------------|--------------------|---------------------||--------------------|--------------------|---------------------||---0--7-9---0-3-5---|---0--7-9---0-3-5---|-10-10-9-------------|
|--------------------|--------------------|---------------------||--------------------|--------------------|---------------------||--------------------|--------------------|---------------------||--------------------|--------------------|---------------------||--------------------|--------------------|---------------------||---0--7-9---0-3-5---|---0--7-9---0-3-5---|-10-10-12------------|
|--------------------|--------------------|---------------------||--------------------|--------------------|---------------------||--------------------|--------------------|---------------------||--------------------|--------------------|---------------------||--------------------|--------------------|---------------------||---0--10-12---0-5-7-|---0--10-12---0-5-7-|-13--13--12----------|repeat
|---------------------------------|----------------------------||---------------------------------|----------------------------||---------------------------------|----------------------------||---------------------------------|----------------------------||---------------------------------|----------------------------||--0--0-0-7p0-4p0-0-0-0-0-0-0-0---|--0--0-0-1h0-4h0------------| \
Repeat|-------------------------------------------------------------| /|-------------------------------------------------------------||-------------------------------------------------------------||-------------------------------------------------------------||-------------------------------------------------------------||--5-5-5-5-5-6-6-6-6-6----------------------------------------|
after reapeating the above
|-------------------------------------------------------------||-------------------------------------------------------------||-------------------------------------------------------------||-------------------------------------------------------------||-------------------------------------------------------------||--3-3-3-3-3-1-1-1-1-1----------------------------------------|
|--------------------|--------------------|---------------------||--------------------|--------------------|---------------------||--------------------|--------------------|---------------------||--------------------|--------------------|---------------------||--------------------|--------------------|---------------------||---0--10-12---0-5-7-|---0--10-12---0-5-7-|-13--13--12----------|repeat
|--------------------|--------------------|---------------------||--------------------|--------------------|---------------------||--------------------|--------------------|---------------------||--------------------|--------------------|---------------------||--------------------|--------------------|---------------------||---0--10-12---0-5-7-|---0--10-12---0-5-7-|-10-10--9------------|
|--------------------|--------------------|---------------------||--------------------|--------------------|---------------------||--------------------|--------------------|---------------------||--------------------|--------------------|---------------------||--------------------|--------------------|---------------------||---0--7-9---0-3-5---|---0--7-9---0-3-5---|-10-10-9-------------|
|--------------------|--------------------|---------------------||--------------------|--------------------|---------------------||--------------------|--------------------|---------------------||--------------------|--------------------|---------------------||--------------------|--------------------|---------------------||---0--7-9---0-3-5---|---0--7-9---0-3-5---|-10-10-12------------|
|--------------------|--------------------|---------------------||--------------------|--------------------|---------------------||--------------------|--------------------|---------------------||--------------------|--------------------|---------------------||--------------------|--------------------|---------------------||---0--10-12---0-5-7-|---0--10-12---0-5-7-|-13--13--12----------|repeat
|-------------------------------------------------------------||-------------------------------------------------------------||-------------------------------------------------------------||-------------------------------------------------------------||-------------------------------------------------------------||-0-0-0-0-12-0-11-0-10--0-9-0-0-8-0-7--0-5-5b7----------------|repeat
etc. You get the point
Tap to rate this tab
 
# A B C D E F G H I J K L M N O P Q R S T U V W X Y Z