Pantera – I Am The Night tab

Song:   I Am the Night
Band:   Pantera
Album:  I Am the Night
Year:   1985
Part:   Rhythm

(Taken from the guitar pro file, I take no credit for this)

**********************************
**  b       bend to             **
**  <>      pinch harmonics     **
**  h       hammer on           **
**  s       slide to            **
**  ~       let ring            **
**  x       mute the string     **
**********************************

E||----------------------|B||----------------------|G||----------------------| there's a run here but ID||----------------------| don't know how to play itA||----------------------| and it wasn't in the GP fileE||----------------------|
|----------------------||----------------------||--5b------------------||-------------------2--||-------------------0--||----------------------|
--------------------------------------|----------------------------------|--------------------------------------|----------------------------------|-----7s-6---6s-5---5s-4---4s-3--------|-----7s-6---6s-5---5s-4---7----7--|--2--5s-4---4s-3---3s-2---2s-1---0h-2-|--2--5s-4---4s-3---3s-2---5----5--|--0-------0------0------0------0------|--0-------0------0------0---------|--------------------------------------|----------------------------------|
--------------------------------------|----------------------------------|--------------------------------------|----------------------------------|-----7s-6---6s-5---5s-4---4s-3--------|-----7s-6---6s-5---5s-4---7----7--|--2--5s-4---4s-3---3s-2---2s-1---0h-2-|--2--5s-4---4s-3---3s-2---5----5--|--0-------0------0------0------0------|--0-------0------0------0---------|--------------------------------------|----------------------------------|
--------------------------------------|----------------------------------|--------------------------------------|----------------------------------|-----7s-6---6s-5---5s-4---4s-3--------|-----7s-6---6s-5---5s-4---7----7--|--2--5s-4---4s-3---3s-2---2s-1---0h-2-|--2--5s-4---4s-3---3s-2---5----5--|--0-------0------0------0------0------|--0-------0------0------0---------|--------------------------------------|----------------------------------|
--------------------------------------|----------------------------------|--------------------------------------|----------------------------------|-----7s-6---6s-5---5s-4---4s-3--------|-----7s-6---6s-5---5s-4---7----7--|--2--5s-4---4s-3---3s-2---2s-1---0h-2-|--2--5s-4---4s-3---3s-2---5----5--|--0-------0------0------0------0------|--0-------0------0------0---------|--------------------------------------|----------------------------------|
--------------------------------------|----------------------------------|--------------------------------------|----------------------------------|-----7s-6---6s-5---5s-4---4s-3--------|-----7s-6---6s-5---5s-4---7----7--|--2--5s-4---4s-3---3s-2---2s-1---0h-2-|--2--5s-4---4s-3---3s-2---5----5--|--0-------0------0------0------0------|--0-------0------0------0---------|--------------------------------------|----------------------------------|
--------------------------------------|---------------------------------|--------------------------------------|---------------------------------|-----7s-6---6s-5---5s-4---4s-3--------|-----7s-6---6s-5---5s-4----------|--2--5s-4---4s-3---3s-2---2s-1---0h-2-|--2--5s-4---4s-3---3s-2---5------|--0-------0------0------0------0------|--0-------0------0------0-5------|--------------------------------------|--------------------------3------|
|----------------------------------||----------------------------------||----------------------------------||--5-------------------------------||--3-3-3-3-3-3-3-3-3-3-3-3-3-3-3-3-||----------------------------------|
----------------------------------|-------------------|----------------------------------|-------------------|----------------------------------|-------------------|----------------------------------|--2----------------|--3-3-3-3-3-3-3-3-3-3-3-3-3-3-3-3-|--0----------------|----------------------------------|-------------------|
----------------------------------|----------------------------------|----------------------------------|----------------------------------|----------------------------------|----------------------------------|----------------------------------|----------------------------------|--5-------------------------------|----------------------------------|--3-3-3-3-3-3-3-3-3-3-3-3-3-3-3-3-|--3-3-3-3-3-3-3-3-3-3-3-3-3-3-3-3-|
-------------------|-------------------|-------------------|-------------------|-------------------|-------------------|--2----------------|--5----------------|--0----------------|--3----------------|-------------------|-------------------|
------------------------------|-------------------|------------------------------|-------------------|------------------<5>~--------|-------------------|-------2s----5----------------|--7----------------|--3---------------------------|--5----------------|------------------------------|-------------------|
------------------------------|-------------------|------------------------------|-------------------|------------------<7>~--------|-------------------|-------4s----7----------------|--5----------------|--5---------------------------|--3----------------|------------------------------|-------------------|
------------------------------|-------------------|------------------------------|-------------------|------------------<5>~--------|-------------------|-------2s----5----------------|--7----------------|--3---------------------------|--5----------------|------------------------------|-------------------|
------------------------------|--------------------------------|------------------------------|--------------------------------|------------------<>7~--------|-------------------<10>~--------|-------4s----7----------------|-------7s----10-----------------|--5---------------------------|--8-----------------------------|------------------------------|--------------------------------|
------------------------------|--------------------------------|------------------------------|--------------------------------|------------------<9>~--------|-------------------<10>~--------|-------6s----9----------------|-------7s----10-----------------|--7---------------------------|--8-----------------------------|------------------------------|--------------------------------|
-------------------------------|--------------------------------------|-------------------------------|--------------------------------------|--------------------12~--------|-----7s-6---6s-5---5s-4---4s-3--------|--------9s----12---------------|--2--5s-4---4s-3---3s-2---2s-1---0h-2-|--10---------------------------|--0-------0------0------0------0------|-------------------------------|--------------------------------------|
----------------------------------|--------------------------------------|----------------------------------|--------------------------------------|-----7s-6---6s-5---5s-4---7----7--|-----7s-6---6s-5---5s-4---4s-3--------|--2--5s-4---4s-3---3s-2---5----5--|--2--5s-4---4s-3---3s-2---2s-1---0h-2-|--0-------0------0------0---------|--0-------0------0------0------0------|----------------------------------|--------------------------------------|
----------------------------------|--------------------------------------|----------------------------------|--------------------------------------|-----7s-6---6s-5---5s-4---7----7--|-----7s-6---6s-5---5s-4---4s-3--------|--2--5s-4---4s-3---3s-2---5----5--|--2--5s-4---4s-3---3s-2---2s-1---0h-2-|--0-------0------0------0---------|--0-------0------0------0------0------|----------------------------------|--------------------------------------|
----------------------------------|--------------------------------------|----------------------------------|--------------------------------------|-----7s-6---6s-5---5s-4---7----7--|-----7s-6---6s-5---5s-4---4s-3--------|--2--5s-4---4s-3---3s-2---5----5--|--2--5s-4---4s-3---3s-2---2s-1---0h-2-|--0-------0------0------0---------|--0-------0------0------0------0------|----------------------------------|--------------------------------------|
----------------------------------|----------------------------------|----------------------------------|----------------------------------|-----7s-6---6s-5---5s-4---7----7--|----------------------------------|--2--5s-4---4s-3---3s-2---5----5--|--5-------------------------------|--0-------0------0------0---------|--3-3-3-3-3-3-3-3-3-3-3-3-3-3-3-3-|----------------------------------|----------------------------------|
----------------------------------|-----------------------------|----------------------------------|-----------------------------|----------------------------------|---------------5~------------|----------------------------------|-----7--x-5--x------7--x-5-7-|--3-3-3-3-3-3-3-3-3-3-3-3-3-3-3-3-|--0--------------------------|----------------------------------|-----------------------------|
-----------------------------|----------------------------------|-----------------------------|----------------------------------|---------------5~------------|----------------------------------|-----7--x-5--x------7--x-5-7-|----------------------------------|--0--------------------------|--5-------------------------------|-----------------------------|--3-3-3-3-3-3-3-3-3-3-3-3-3-3-3-3-|
----------------------------------|----------------------|----------------------------------|----------------------|----------------------------------|--------------------x-|----------------------------------|--2-------------------|----------------------------------|--0-------------------|--3-3-3-3-3-3-3-3-3-3-3-3-3-3-3-3-|----------------------|
-------------------------|-------------------|------------------------------|-------------------------|-------------------|------------------------------|--7b----5----5~----------|-------------------|------------------<5>~--------|-----------7-------------|--5----------------|-------2s----5----------------|-------------------------|--3----------------|--3---------------------------|-------------------------|-------------------|------------------------------|
-------------------|------------------------------|-------------------|-------------------|------------------------------|-------------------|-------------------|------------------<7>~--------|-------------------|--7----------------|-------4s----7----------------|--5----------------|--5----------------|--5---------------------------|--3----------------|-------------------|------------------------------|-------------------|
------------------------------|-------------------|------------------------------|-------------------|------------------<5>~--------|-------------------|-------2s----5----------------|--7----------------|--3---------------------------|--5----------------|------------------------------|-------------------|
------------------------------|--------------------------------|------------------------------|--------------------------------|------------------<7>~--------|-------------------<10>~--------|-------4s----7----------------|-------7s----10-----------------|--5---------------------------|--8-----------------------------|------------------------------|--------------------------------|
------------------------------|--------------------------------|------------------------------|--------------------------------|------------------<9>~--------|-------------------<10>~--------|-------6s----9----------------|-------7s----10-----------------|--7---------------------------|--8-----------------------------|------------------------------|--------------------------------|
-------------------------------|--------------------------------------|-------------------------------|--------------------------------------|--------------------12~--------|-----7s-6---6s-5---5s-4---4s-3--------|--------9s----12---------------|--2--5s-4---4s-3---3s-2---2s-1---0h-2-|--10---------------------------|--0-------0------0------0------0------|-------------------------------|--------------------------------------|
----------------------------------|--------------------------------------|----------------------------------|--------------------------------------|-----7s-6---6s-5---5s-4---7----7--|-----7s-6---6s-5---5s-4---4s-3--------|--2--5s-4---4s-3---3s-2---5----5--|--2--5s-4---4s-3---3s-2---2s-1---0h-2-|--0-------0------0------0---------|--0-------0------0------0------0------|----------------------------------|--------------------------------------|
----------------------------------|--------------------------------------|----------------------------------|--------------------------------------|-----7s-6---6s-5---5s-4---7----7--|-----7s-6---6s-5---5s-4---4s-3--------|--2--5s-4---4s-3---3s-2---5----5--|--2--5s-4---4s-3---3s-2---2s-1---0h-2-|--0-------0------0------0---------|--0-------0------0------0------0------|----------------------------------|--------------------------------------|
----------------------------------|--------------------------------------|----------------------------------|--------------------------------------|-----7s-6---6s-5---5s-4---7----7--|-----7s-6---6s-5---5s-4---4s-3--------|--2--5s-4---4s-3---3s-2---5----5--|--2--5s-4---4s-3---3s-2---2s-1---0h-2-|--0-------0------0------0---------|--0-------0------0------0------0------|----------------------------------|--------------------------------------|
----------------------------------|------------------------------|----------------------------------|------------------------------|-----7s-6---6s-5---5s-4---7----7--|------------------<7>~--------|--2--5s-4---4s-3---3s-2---5----5--|-------4s----7----------------|--0-------0------0------0---------|--5---------------------------|----------------------------------|------------------------------|
------------------------------|--------------------------------|------------------------------|--------------------------------|------------------<9>~--------|-------------------<10>~--------|-------6s----9----------------|-------7s----10-----------------|--7---------------------------|--8-----------------------------|------------------------------|--------------------------------|
-------------------------------|-------------|-------------------------------|-------------|--------------------12~--------|-------------|--------9s----12---------------|-------------|--10---------------------------|--7--------7-|-------------------------------|--5--------5-|
-------|------|--------|-------------|-------|-------|---------|-------|------|--------|-------------|-------|-------|---------|-------|----5-|---7----|-------------|-------|-----5-|---7-----|-----5-|----5-|---7----|-------------|-----5-|-----5-|---7-----|-----5-|------|--------|--7--------7-|-----5-|-------|---------|-------|------|--------|--5--------5-|-------|-------|---------|
----------------------------------|--------------------------------|----------------------------------|--------------------------------|--7-6-----5-4-----7-6-----5-4-----|--3-2-----3-2-----3-2-----2~----|------7-x-----5-x-----7-x-----5-x-|------3-x-----3-x-----3-x-------|----------------------------------|--------------------------------|----------------------------------|--------------------------------|
----------------------------------|--------------------------------|----------------------------------|--------------------------------|--7-6-----5-4-----7-6-----5-4-----|--3-2-----3-2-----3-2-----2~----|------7-x-----5-x-----7-x-----5-x-|------3-x-----3-x-----3-x-------|----------------------------------|--------------------------------|----------------------------------|--------------------------------|
------------------------------|------------------------------|------------------------------|------------------------------|------------------<7>~--------|------------------<9>~--------|-------4s----7----------------|-------6s----9----------------|--5---------------------------|--7---------------------------|------------------------------|------------------------------|
--------------------------------|-------------------------------|--------------------------------|-------------------------------|-------------------<10>~--------|--------------------12~--------|-------7s----10-----------------|--------9s----12---------------|--8-----------------------------|--10---------------------------|--------------------------------|-------------------------------|
----------------------|--------------------------------------|----------------------|--------------------------------------|--5b------------------|-----7s-6---6s-5---5s-4---4s-3--------|-------------------2--|--2--5s-4---4s-3---3s-2---2s-1---0h-2-|-------------------0--|--0-------0------0------0------0------|----------------------|--------------------------------------|
----------------------------------|--------------------------------------|----------------------------------|--------------------------------------|-----7s-6---6s-5---5s-4---7----7--|-----7s-6---6s-5---5s-4---4s-3--------|--2--5s-4---4s-3---3s-2---5----5--|--2--5s-4---4s-3---3s-2---2s-1---0h-2-|--0-------0------0------0---------|--0-------0------0------0------0------|----------------------------------|--------------------------------------|
----------------------------------|--------------------------------------|----------------------------------|--------------------------------------|-----7s-6---6s-5---5s-4---7----7--|-----7s-6---6s-5---5s-4---4s-3--------|--2--5s-4---4s-3---3s-2---5----5--|--2--5s-4---4s-3---3s-2---2s-1---0h-2-|--0-------0------0------0---------|--0-------0------0------0------0------|----------------------------------|--------------------------------------|
----------------------------------|--------------------------------------|----------------------------------|--------------------------------------|-----7s-6---6s-5---5s-4---7----7--|-----7s-6---6s-5---5s-4---4s-3--------|--2--5s-4---4s-3---3s-2---5----5--|--2--5s-4---4s-3---3s-2---2s-1---0h-2-|--0-------0------0------0---------|--0-------0------0------0------0------|----------------------------------|--------------------------------------|
----------------------------------|--------------------------------------|----------------------------------|--------------------------------------|-----7s-6---6s-5---5s-4---7----7--|-----7s-6---6s-5---5s-4---4s-3--------|--2--5s-4---4s-3---3s-2---5----5--|--2--5s-4---4s-3---3s-2---2s-1---0h-2-|--0-------0------0------0---------|--0-------0------0------0------0------|----------------------------------|--------------------------------------|
----------------------------------|--------------------------------------|----------------------------------|--------------------------------------|-----7s-6---6s-5---5s-4---7----7--|-----7s-6---6s-5---5s-4---4s-3--------|--2--5s-4---4s-3---3s-2---5----5--|--2--5s-4---4s-3---3s-2---2s-1---0h-2-|--0-------0------0------0---------|--0-------0------0------0------0------|----------------------------------|--------------------------------------|
----------------------------------|---------------------------|----------------------------------|------------------5--------|-----7s-6---6s-5---5s-4---7----7--|------------------5--------|--2--5s-4---4s-3---3s-2---5----5--|-------2s----5-------------|--0-------0------0------0---------|--3------------------------|----------------------------------|---------------------------|
---------------------------|---------------------------|------------------7--------|------------------5--------|------------------7--------|------------------5--------|-------4s----7-------------|-------2s----5-------------|--5------------------------|--3------------------------|---------------------------|---------------------------|
---------------------------|-----------------------------|------------------7--------|-------------------10--------|------------------7--------|-------------------10--------|-------4s----7-------------|-------7s----10--------------|--5------------------------|--8--------------------------|---------------------------|-----------------------------|
---------------------------|-----------------------------|------------------9--------|-------------------10--------|------------------9--------|-------------------10--------|-------6s----9-------------|-------7s----10--------------|--7------------------------|--8--------------------------|---------------------------|-----------------------------|
------------------------------|--------------------------------------|--------------------12--------|--------------------------------------|--------------------12--------|-----7s-6---6s-5---5s-4---4s-3--------|--------9s----12--------------|--2--5s-4---4s-3---3s-2---2s-1---0h-2-|--10--------------------------|--0-------0------0------0------0------|------------------------------|--------------------------------------|
----------------------------------|--------------------------------------|----------------------------------|--------------------------------------|-----7s-6---6s-5---5s-4---7----7--|-----7s-6---6s-5---5s-4---4s-3--------|--2--5s-4---4s-3---3s-2---5----5--|--2--5s-4---4s-3---3s-2---2s-1---0h-2-|--0-------0------0------0---------|--0-------0------0------0------0------|----------------------------------|--------------------------------------|
----------------------------------|--------------------------------------|----------------------------------|--------------------------------------|-----7s-6---6s-5---5s-4---7----7--|-----7s-6---6s-5---5s-4---4s-3--------|--2--5s-4---4s-3---3s-2---5----5--|--2--5s-4---4s-3---3s-2---2s-1---0h-2-|--0-------0------0------0---------|--0-------0------0------0------0------|----------------------------------|--------------------------------------|
----------------------------------|--------------------------------------|----------------------------------|--------------------------------------|-----7s-6---6s-5---5s-4---7----7--|-----7s-6---6s-5---5s-4---4s-3--------|--2--5s-4---4s-3---3s-2---5----5--|--2--5s-4---4s-3---3s-2---2s-1---0h-2-|--0-------0------0------0---------|--0-------0------0------0------0------|----------------------------------|--------------------------------------|
---------------------------------|---------------------------------|-----7s-6---6s-5---5s-4----------|--2--5s-4---4s-3---3s-2---5------|--0-------0------0------0-5------|--------------------------3------|
|--------------------------------------------||--------------------------------------------||--------------------------------------------||--12p-10----10---10s-9----9s-7---7---7s-5---||---------12------------10------9----------7-||--------------------------------------------|
----------------------------|----------------------------|----------------2-----------|--5s-4---4s-2---2-----------|-------5------4-0-----------|----------------------------|
---------------------||---------------------||--2------------------||--2------------------||--0------------------||---------------------||
Please rate this tab:
x1.0