Pantheist - Sloth tab

================================================================================
                               P A N T H E I S T

                                       -

                                   S L O T H
================================================================================


			            AMARTIA
		            (c) 2005 FireDoom Music
                           http://www.pantheist.co.uk/


                              Tune Down 3 & 1/2 Steps
			          A D G  C E A

			         Tempo = 80 BPM
		              Time Signature = 4/4



                          -----------------------------
		                 Transcribed by

		                 PADDY MCMULLAN
                           stinkypoohpants@yahoo.co.uk

                                   Version 1.0
                             -----------------------

		             Tablature Symbols Used:


 P.M.. ... -  Palm Mute
 h         -  Hammer-on
 p         -  Pull-off
 \         -  Slide Down to/Down From
 /         -  Slide Up to/Up From
 ( / )     -  Legato Slide
 ( )       -  Ghost Note/Tied Note/Implied Note



================================================================================
Riff 1: Guitar 1 (Play 4 times, with Lead Riff 1)
================================================================================


||------------------|------------------|------------------|------------------| |||------------------|------------------|------------------|------------------| |||------------------|------------------|------------------|------------------|*|||--4---------------|--4---------------|------------------|------------------|*|||--2---------------|--2---------------|--4---------------|--4---------------| |||------------------|------------------|--2---------------|--2---------------| |
================================================================================ Lead Riff 1: Guitar 2 (Play 4 times) ================================================================================
||----------------------|------------------------|----------------------|||--12------------12----|--15------------14--12--|--14------------15----|||----------------------|------------------------|----------------------|||----------------------|------------------------|----------------------|||----------------------|------------------------|----------------------|||----------------------|------------------------|----------------------|
|--------------------| ||--14----------------| ||--------------------|*||--------------------|*||--------------------| ||--------------------| |
================================================================================ Riff 2: Guitars 1 and 2 (Play twice) ================================================================================
1 2 3||--------------------|------------------|-------------------|||--------------------|------------------|-------------------|||--------------------|------------------|-------------------|||--------------------|------------------|-------------------|||--2------------2----|--5---------------|--4----------------|||--0------------0----|--3---------------|--2----------------|
4 5 6 7|------------------|------------------|------------------|------------------||------------------|------------------|------------------|------------------||------------------|------------------|------------------|------------------||------------------|--4---------------|--4---------------|------------------||--(4)-------------|--2---------------|--2---------------|--4---------------||--(2)-------------|------------------|------------------|--2---------------|
8 9 10 11|------------------|------------------|------------------|------------------||------------------|------------------|------------------|------------------||------------------|------------------|------------------|------------------||------------------|--4---------------|--4---------------|------------------||--(4)-------------|--2---------------|--2---------------|--4---------------||--(2)-------------|------------------|------------------|--2---------------|
12 13 14 15|------------------|------------------|------------------|------------------||------------------|------------------|------------------|------------------||------------------|------------------|------------------|------------------||------------------|--4---------------|--4---------------|------------------||--(4)-------------|--2---------------|--2---------------|--4---------------||--(2)-------------|------------------|------------------|--2---------------|
16|-------------------| ||-------------------| ||-------------------|*||-------------------|*||--(4)--------------| ||--(2)--------------| |
NOTE: Guitar 2, for the first repeat only, plays the following in place of the first 4 bars of the riff:
||--------------------|---------------------|--------------------|||--------------------|--8------------7-----|--7------------8----|||--9------------9----|------------------9--|--------------------|||--------------------|---------------------|--------------------|||--------------------|---------------------|--------------------|||--------------------|---------------------|--------------------|
|-------------------| ||--7----------------| ||-------------------|*||-------------------|*||-------------------| ||-------------------| |
================================================================================ Riff 3: Guitars 1 and 2 (Play once) ================================================================================
1 2 3||-------------------|-------------------|-------------------|||-------------------|-------------------|-------------------|||-------------------|-------------------|-------------------|||-------------------|-------------------|-------------------|||--2----------------|--2----------------|--4----------------|||--0----------------|--0----------------|--2----------------|
4 5 6 7|------------------|------------------|------------------|------------------||------------------|------------------|------------------|------------------||------------------|------------------|------------------|------------------||------------------|------------------|------------------|------------------||--(4)-------------|--2---------------|--5---------------|--4---------------||--(2)-------------|--0---------------|--3---------------|--2---------------|
8 9 10 11|------------------|------------------|------------------|------------------||------------------|------------------|------------------|------------------||------------------|------------------|------------------|------------------||------------------|------------------|------------------|------------------||--(4)-------------|--2---------------|--2---------------|--4---------------||--(2)-------------|--0---------------|--0---------------|--2---------------|
12|-------------------|||-------------------|||-------------------|||-------------------|||--(4)--------------|||--(2)--------------||
================================================================================ Guitar 1 plays Riff 2 twice while Guitar 2 Plays Lead Riff 2 ================================================================================ ================================================================================ Lead Riff 2: Guitar 2 (Play twice) ================================================================================ * The first 4 bars are played along with guitar 1 for one time only *
||-------------------|-------------------|-------------------|||-------------------|-------------------|-------------------|||-------------------|-------------------|-------------------|||-------------------|-------------------|-------------------|||--2----------------|--5----------------|--4----------------|||--0----------------|--3----------------|--2----------------|
1 2|---------------------| |----------------------|----------------------||---------------7/ | |--12------------12----|--15------------15----||---------------------| |----------------------|----------------------||---------------------| |----------------------|----------------------||--(4)----------------| |----------------------|----------------------||--(2)----------------| |----------------------|----------------------|
3 4 5|----------------------|----------------------|-------------------------||--14------------15----|--14------------14----|--15-----------14--12----||----------------------|----------------------|-------------------------||----------------------|----------------------|-------------------------||----------------------|----------------------|-------------------------||----------------------|----------------------|-------------------------|
6 7 8|------------------------|--------------------|---------------------| ||--12--------14----15----|--14----------------|--(14)----------7/ | ||------------------------|--------------------|---------------------|*||------------------------|--------------------|---------------------|*||------------------------|--------------------|---------------------| ||------------------------|--------------------|---------------------| |
================================================================================ Guitars 1 and 2 play Riff 2 once ================================================================================ ================================================================================ All guitars rest for 4 bars, with feedback from guitar 2 throughout ================================================================================ ================================================================================ Riff 4: Guitars 1 and 2 (Play twice) ================================================================================
| |---------------|---------------|---------------|----------------|| |---------------|---------------|---------------|----------------||4|---------------|---------------|---------------|----------------||/|---------------|---------------|---------------|----------------||4|--4------------|--(4)----------|--(4)----------|--(4)-----------|| |--2------------|--(2)----------|--(2)----------|--(2)-----------|
|---------------|---------------|---------------|----------------||---------------|---------------|---------------|----------------||---------------|---------------|---------------|----------------||--7------------|--(7)----------|--(7)----------|--(7)-----------||--5------------|--(5)----------|--(5)----------|--(5)-----------||---------------|---------------|---------------|----------------|
|---------------|---------------|---------------|----------------||---------------|---------------|---------------|----------------||---------------|---------------|---------------|----------------||--4------------|--(4)----------|--(4)----------|--(4)-----------||--2------------|--(2)----------|--(2)----------|--(2)-----------||---------------|---------------|---------------|----------------|
|---------------|---------------| |------------| ||---------------|---------------| |------------| ||---------------|---------------|3|------------|*||--6------------|--(6)----------|/|--(6)-------|*||--4------------|--(4)----------|4|--(4)-------| ||---------------|---------------| |------------| |
================================================================================ Riff 5: Guitar 1 (Play once, with Lead Riff 3) ================================================================================
1 2||--------------------------|--------------------------|||--------------------------|--------------------------|||--------------------------|--------------------------|||--7--7--7--7--7--7--7--7--|--7--7--7--7--7--7--7--7--|||--5--5--5--5--5--5--5--5--|--5--5--5--5--5--5--5--5--|||--------------------------|--------------------------| P.M.................... ......................
2 3|--------------------------|--------------------------||--------------------------|--------------------------||--------------------------|--------------------------||--9--9--9--9--9--9--9--9--|--9--9--9--9--9--9--9--9--||--7--7--7--7--7--7--7--7--|--7--7--7--7--7--7--7--7--||--------------------------|--------------------------| ...................... ......................
4 5|--------------------------|--------------------------||--------------------------|--------------------------||--------------------------|--------------------------||--------------------------|--------------------------||--7--7--7--7--7--7--7--7--|--7--7--7--7--7--7--7--7--||--5--5--5--5--5--5--5--5--|--5--5--5--5--5--5--5--5--| ...................... ......................
6 7|--------------------------|--------------------------||--------------------------|--------------------------||--------------------------|--------------------------||--------------7--7--7--7--|--6--6--6--6--6--6--7--7--||--9--9--9--9--5--5--5--5--|--4--4--4--4--4--4--5--5--||--7--7--7--7--------------|--------------------------| ...................... ......................
8 9|--------------------------|--------------------------||--------------------------|--------------------------||--------------------------|--------------------------||--6--6--6--6--6--6--6--6--|--6--6--6--6--6--6--6--6--||--4--4--4--4--4--4--4--4--|--4--4--4--4--4--4--4--4--||--------------------------|--------------------------| ...................... ......................
10 11|--------------------------|--------------------------||--------------------------|--------------------------||--------------------------|--------------------------||--7--7--7--7--7--7--7--7--|--7--7--7--7--7--7--7--7--||--5--5--5--5--5--5--5--5--|--5--5--5--5--5--5--5--5--||--------------------------|--------------------------| ...................... ......................
12 14|--------------------------|--------------------------||--------------------------|--------------------------||--------------------------|--------------------------||--------------------------|--------------------------||--9--9--9--9--9--9--9--9--|--9--9--9--9--9--9--9--9--||--7--7--7--7--7--7--7--7--|--7--7--7--7--7--7--7--7--| ...................... ......................
15 16|--------------------------|--------------------------| ||--------------------------|--------------------------| ||--------------------------|--------------------------|*||--6--6--6--6--7--7--7--7--|--6--6--6--6--6--6--6--6--|*||--4--4--4--4--5--5--5--5--|--4--4--4--4--4--4--4--4--| ||--------------------------|--------------------------| |
================================================================================ Lead Riff 3: Guitar 2 (Play once) ================================================================================
1 2 3||----------------------|----------------------|----------------------|||----------------------|----------------------|----------------------|||----------------------|----------------------|----------------------|||--4----4----6----7----|--6----4----6----4----|--6----6----7----9----|||----------------------|----------------------|----------------------|||----------------------|----------------------|----------------------|
4 5 6|----------------------|-----------------------|----------------------||----------------------|-----------------------|----------------------||----------------------|-----------------------|----------------------||--7----6----7----6----|--7----7----9----11----|--9----7----9----7----||----------------------|-----------------------|----------------------||----------------------|-----------------------|----------------------|
7 8 9|------------------------|--------------------------|-------------------------||------------------------|--------------------------|-------------------------||------------------------|--------------------------|-------------------------||--9----9----12----12----|--11----11----11----12----|--11----------------9----||------------------------|--------------------------|--------11----12---------||------------------------|--------------------------|-------------------------|
10 11 12|--------------------------|-------------------------|----------------------||--------------------------|-------------------------|----------------------||--------------------------|-------------------------|----------------------||--------------------------|--------------9----11----|--9----7----9----7----||--12----11----12----11----|--12----12---------------|----------------------||--------------------------|-------------------------|----------------------|
13 14 15|------------------------|------------------------|--------------------------||------------------------|------------------------|--------------------------||------------------------|------------------------|--------------------------||--9----9----11----12----|--11----9----11----9----|--11----11----12----12----||------------------------|------------------------|--------------------------||------------------------|------------------------|--------------------------|
16|--------------------------|||--------------------------|||--------------------------|||--11----11----11----11----|||--------------------------|||--------------------------||
================================================================================ Guitars 1 and 2 play Riff 4 twice, playing and holding the 1st bar once more ================================================================================ ================================================================================ End ================================================================================ Tab summary: Riff 1 + Lead Riff 1 X 1 Riff 2 X 2 Riff 3 X 1 + Lead Riff 2 X 2 Riff 2 X 1 Riff 4 X 2 Riff 5 + Lead Riff 3 X 1 Riff 4 X 2 END
Tap to rate this tab
 
# A B C D E F G H I J K L M N O P Q R S T U V W X Y Z