Paolo Santos – Only Hope tab

                                 “ONLY HOPE”
                              (Acoustic Version)
                                 Paolo Santos

                          Tabbed by:Reynaldo R. Ramos
                               rey_rrr@yahoo.com


I’m sure magugustuhan ninyo ito kasi pulido pagkaka transcriped ko nito natagalan
nga bago natapos…. GRABE kakainlab talaga si KAYLA ganda ng boses…… si paolo
santos talagang pinahihirapan ako…… 

Sya nga pala hindi ko maipasa yung mga tabs ko ni NINA(foolish heart and Jealous)
kasi wala pa sa database nila si NINA if you want that Tab e mail nyo ako madali
namn akong kausap eh!! o kaya tulungan nyo ako i add si NINA sa database ng site
na2..!! 

Thnkzzzzzzz!

INTRO:

|----------------------------------------------------------||------------------9-----9-----------2---------------------||----8-8-8h9h8-8---8---8---8-------1-----1--6--6--5---5----||--------9------9--9-9-------6---2-----2----6-6---6-6------||------------------------------0---------------------------||--9---------------7------------------------4-----4--------|
|----------------------------------------------------------||------------------9-----9------------0--------------------||------8-8h9h8-8---8---8---8--------1-----1-6---6-5--------||----9-9-9---------9-9-------6----2-----2---6-6---6--------||-------------------------------0--------------------------||--9---------------7------------------------4-----4--------|
Stanza I
|-----------------------------------------0----------------||-------------9-----9-----------0---0-----0----------------||-----4h6-----8---8-----8-----1-----1---1-1----------------||---6------6--9-9-----9-----2---------2------2-------------||-4-------4---------------0-------0-------0----0-----------||-------------7--------------------------------------------|
|-----------------------------------0----------------------||-------5--------------5------------0----------------------||-----4---4--------4---4--------1-------6---6-6h5---5------||---6-------6----2------------2---------6-6---6---6--------||-4------------2------------0------------------------------||---------------------------------------4-----4------------|
|---------------------------------------------0------------||-5-----5-----------5-------------0-----------0------------||-4---4---4-------4-----4-------1----1-----1--1------------||-6-6-------6---2-----2-------2-----2-2---2-2----2---------||-4-----------2-------------0-----------0-----------0------||----------------------------------------------------------|
|----------------------------------------------------------||-------5---------------5----------------------------------||-----4---4-----------4-4-----1-------1----6----6--5-------||---6-------6------2---------2-2-----2-2---6--6----6-------||-4-------------2---------0-------0------------------------||------------------------------------------4-------4-------|
CHORUS 1:
|-------------------1--------------------------------------||-6-x--6-----1-1----1---2-----2-----2-----2----------------||-5-x--5-----1--1---1---3--3--3--3--3--3--3--3-------------||-6-x--6-----3----------4-4-4-4-4-4-4-4-4-4-4--------------||-4----4---------------------------------------------------||------------1------1---2-----2-----2-----2----2/----------|
|-------------------------------------------------------||-6------6----6--1------1----1--2------2---1------1-----||-5---5--5----5--1--1---1----1--3-3----3---1-1----1-----||-6--6-6-6--5----3----3-3----3--4---4--4---3---3--3-----||-4------4----------------------------------------------||----------------1------1--1----2------2---1------1-----|
|-------------------------------------------------------||-2-----2--1-----1--------2-----------------------------||-3-3---3--1-1---1------1-----6----6-----5--------------||-4---4-4--3---3-3----2-------6--6-------6--------------||-------------------0-----------------------------------||-2-----2--1-----1------------4----------6--------------|
Interlude:
|---------------------------------------------------------||---------------9-----9----------2-----2------------------||----8-8h9h8-8--8---8----8-----1----1--1---6--------------||---9--9------9-9-9----9-----2-----2-2-2---6--------------||--------------------------0-----------0------------------||-9-------------7--------------------------4--------------|
Stanza II
|----------4------------------------------------------||--------5----------5-------------2-----2-----2-------||------4-----4----4---4---------1-1--1--1--1--1-------||----6-------6---2------2-----2---2-2-2-2-2-2-2-2-----||--4------------2----------0------------0-----0---0---||-----------------------------------------------------|
|--------4----------------------------------------------||--------5---5-----5------------------------------------||------4-----4---4-4-------1-1-1---6---6--5---5---------||----6-----6----2--------2---2--2--6-6----6-6-----------||--4-----------2-------0-----0--------------------------||----------------------------------4------4-------------|
|-------4--------------(4)-------0----------------------||-------5---5-------(4)----------0-----2-----0----------||-----4-----4----1-------------1----1--1--1--1--1-------||---6-----6------------------2-----2-2---2-2---2-2------||-4-----------4-2----------0-----------0-----0----------||-------------------------------------------------------|
|--------------------0----------------------------------||-------5----------0---------0--------------------------||-----4---4------1---------1-1---6---6-5----------------||---6-------6------------2-------6-6---6----------------||-4------------2-------0-----0--------------------------||--------------------------------4-----4----------------|
CHORUS II
|-------------1-(1)-----------------------2------------||--6-(6)---6--1-(1)-1------------------2--2----------2-||--5-(5)---5--1-(1)-1--------3--3--3----3-3-3--3-----3-||--6-(6)---6--------3---------4-----------4--4-------4-||--4-(4)---4---------------------4--------4-----4------||-------------1-(1)-1---0--2---------2----2--------2---|
|-----------------------------2--------1--------2--------1------||--6---(6)-6--6--1-----1------2----2---1----1---2----2---1----1-||--5---(5)-5-5-5-1-1---1-1----3-3--3-3-1-1--1-1-3-3--3-3-1-1--1-||--6---(6)-6-----3---3-3------4--4-----3--3-----4--4-----3--3---||--4-4-----4------------------4--------3--------4--------3------||----------------1-----1---0--2--------1--------2--------1------|
|-0-----------------------------------------------||-2----2------------------------------------------||-1-1--1-1----6-----5-----------------------------||-2--2--------6-----6-----------------------------||-0-----------6-----6-----------------------------||-------------4-----4-----------------------------|
Bridge:
|--------------------------------------------4----||--------6----------6--6-------6---6-----6-6-6-6--||------5----5----5--5-555---5--5--555----5-5---5--||----6-----6-6--6-6---6-6--6-6----6-6--6----------||--4-----------4----4-----4----4------4-----------||-------------------------------------------------|
|-----------------------4--------------------4-----||----5-----5--------------4----------------------4-||----6-----6----------4-----4-----1----4---4---4---||----6---6---6------6-----------2------6-6---------||--0-4-4-------4--------------0------0-------------||-----------------4--------------------4-----------|
|---------------------------------------------------||-------2-----------4-----------0-------------------||-----1--1--------4---4-------1---1----6---6--5---5-||---2------2----6-------6---2-------2--6-6----6-6---||-0-----------------------0-------------------------||-------------4------------------------4------6-----|
|-----------------------------------------------------||-------0--------------11------11-------------------4-||-----1---6---6-5---5--11---11----11--6---6-5---5---5-||---2-----6-6---6-6------11-------11--6-6---6---6-----||-0--------------------9-------9----------------------||---------4-----4---------------------4-----4---4-4---|
CHORUS III (Kayo na ang bahala sa pattern ng plucking halos pareho lang ng chorus 1 and 2 pattern nya !!) C#M7—-Fm--F#---- C#M7--Fm--F#-- Fm—-F#-- Fm--F#-- Fm—-AM7— G#sus-G# OUTRO:
|----------------------------------------------------------||------------------9-----9-----2-----2---------------------||----8-8-8h9h8-8---8---8-----8-1---1-1---1--6--6--5---5----||--------9------9--9-9-----9---2-2---2-2----6-6---6-6------||------------------------------0-----0---------------------||--9---------------7------------------------4-----4--------|
|----------------------------------------------------------||------------------9-----9------0-----0---------------6----||------8-8h9h8-8---8---8-----8--1---1-1---1-6---6-5---6----||----9-9-9---------9-9-----9----2-2---2-2---6-6---6---6----||-------------------------------0-----0---------------4----||--9---------------7------------------------4-----4--------|
---------------------------------END-----------------------------
Please rate this tab:
x1.0