Paradise Lost - Yearn For Change tab

Paradise Lost: Yearn For Change

Transcribed by Nikoteemu V,,n,nen (osmo.vaananen@pp.inet.fi)

I didn't tab the solos, because I didn't have the time. I might
add them later, though. Also I left out some of the leads.
The acoustic ones in verses require some more work, so I'll
add them later on as well.
Comments and corrections are welcome.

Tune guitars down 1 step: DCGFAD

Intro clean tone play 3 times|---------------------------------|---------------------------------||*-------------------------------*|---------------------------------||------5-------5-----------4-5-4--|-----5-------5---7b8r7-5-7-5-----||--7-7---7---7---7---7---5--------|-7-7---7---7---7-------------7-5-||*---------------------7---------*|---------------------------------||---------------------------------|---------------------------------|
play 3 times distortion|---------------------------------|---------------------------------||*-------------------------------*|---------------------------------||------5-------5-----------4-5-4--|-----5-------5---7b8r7-5-7-5-----||--7-7---7---7---7---7---5--------|-7-7---7---7---7-------------7-5-||*---------------------7---------*|---------------------------------||---------------------------------|---------------------------------|
|-----------------|-------------------------------------------------------||-----------------|*-----------------------------------------------------*||-----------------|------9----9--------7----7--------5-----5-----5----5---||-----------------|-7--7-7--7-7-7-5--5-5--5-5-5-3--3-3--3--3--3--3--3-3-3-||-5b6r5-3-5-3-----|*7--7-7--7-7-7-5--5-5--5-5-5-3--3-3--3--3--3--3--3-3-3*||-------------5-3-|-5--5----5---5-3--3----3---3-1--1----1-----1-----1---1-|
Verse|-----------------------------------------------------------||*---------------------------------------------------------*||--------------------------7-7-7-7-7-7-7-7-7-7-7-7-7-7-7-7--||--2-222---2---2-222---2---7-7-7-7-7-7-7-7-7-7-7-7-7-7-7-7--||*-2-222---2---2-222---2---5-5-5-5-5-5-5-5-5-5-5-5-5-5-5-5-*||--0-000---0---0-000---0------------------------------------| .. ..
|--------------------------------------------------------------------||*------------------------------------------------------------------*||--2-2-2-2-2-2-2-2-2-2-2-2-2-2-2-2-----------------------------------||--2-2-2-2-2-2-2-2-2-2-2-2-2-2-2-2-3-3-3-3-3-3-3-3-3-3-3-3-3-3333-3--||*-0-0-0-0-0-0-0-0-0-0-0-0-0-0-0-0-3-3-3-3-3-3-3-3-3-3-3-3-3-3333-3-*||----------------------------------1-1-1-1-1-1-1-1-1-1-1-1-1-1111-1--| . ....
|---------------------------------||---------------------------------||---------------------------------||-2---2-2---2-2-2-2---2-2---2-2-2-||-2---2-2---2-2-2-2---2-2---2-2-2-||-0---0-0---0-0-0-0---0-0---0-0-0-|
Chorus|-------------------------------------------------------||*-----------------------------------------------------*||------9----9--------7----7--------5-----5-----5----5---||-7--7-7--7-7-7-5--5-5--5-5-5-3--3-3--3--3--3--3--3-3-3-||*7--7-7--7-7-7-5--5-5--5-5-5-3--3-3--3--3--3--3--3-3-3*||-5--5----5---5-3--3----3---3-1--1----1-----1-----1---1-|
Chorus lead (I'm not sure about this)|----------------17-----------17----------------17----------------------||----------------------------------------------------------13-12--------||------14~~---14----14~~---14---------14~~---14----14~~-----------------||-----------------------------------------------------------------------||--12~~----12-----------12--------12~~----12-----------12---------------||-----------------------------------------------------------------------|
-repeat verse -repeat chorus
Acoustic part|-------------------------------------------------------2-2-||-0-----1---3---1-3-----0-0-------0-----1---3---1-3-----3-3-||-0-----0---0---0-0-----0-0-------0-----0---0---0-0-----2-2-||-2-----2---2---2-2-----2-2-------2-----2---2---2-2---------||-----------------------------------------------------------||-----------------------------------------------------------|
Mid-part|-----------------------------------------------------------------||-----------------------------------------------------------------||-----5-------5-----------4-5-4~~-----5-------5-----------4-5-4~~-||-7-7---7---7---7---7---5---------7-7---7---7---7---7---5---------||---------------------7-------------------------------7-----------||-----------------------------------------------------------------|
| ||-----------------------------------------------------------------||-----------------------------------------------------------------||-2-------------4-----------------5-------------------------------||-2-------------4-----------------5-------------2-----------------||-0-------------2-----------------3-------------2-----------------||-----------------------------------------------0-----------------|
|-----------------------------------------------------------------||-----------------------------------------------------------------||-----5-------5-----------4-5-4~~-----5-------5---7b8r7-5-7-5-----||-7-7---7---7---7---7---5---------7-7---7---7---7-------------7-5-||---------------------7-------------------------------------------||-----------------------------------------------------------------|
| ||-----------------------------------------------------------------||-----------------------------------------------------------------||-2-------------4-----------------5-------------------------------||-2-------------4-----------------5-------------2-----------------||-0-------------2-----------------3-------------2-----------------||-----------------------------------------------0-----------------|
|---------------------------------------------------||*-------------------------------------------------*||--9~~~7~~~5~~~------------9~~~7~~~5~~~-------------||--------------9~~~7~~~5~~~------------9~~~7~~~5~~~-||*-------------------------------------------------*||---------------------------------------------------|
| ||---------------------------------------------------||*-------------------------------------------------*||--2-----------4-----------5------------------------||--2-----------4-----------5-----------2------------||*-0-----------2-----------3-----------2-----------*||--------------------------------------0------------|
Solo rhythm (solo might follow later) |-------------------------------------------------------------------------||-------------------------------------------------------------------------||-2---2-2-4---4-4-5---5-5---------2---2-2-4---4-4-5---5-5---------9---9-9-||-2---2-2-4---4-4-5---5-5-2---2-2-2---2-2-4---4-4-5---5-5-2---2-2-9---9-9-||-0---0-0-2---2-2-3---3-3-2---2-2-0---0-0-2---2-2-3---3-3-2---2-2-7---7-7-||-------------------------0---0-0-------------------------0---0-0---------|
-repeat chorus twice
Outro |--------------------------------------------------||*------------------------------------------------*||--14~~~~-14~~~~-14~~~~-14~~~~-14b16r14--12--14~~--||--------------------------------------------------||*------------------------------------------------*||--------------------------------------------------|
| ||--------------------------------------------------||*------------------------------------------------*||--2-------------5------4--------------------------||--2------5------5------4------3-------------5-----||*-0------5------3------2------3-------------5----*||---------3--------------------1-------------3-----|
|----------------------------------------||----------------------------------------||--9~~~---7~~~---5~~~--------------------||-----------------------9~~~---7~~~5~~~--||----------------------------------------||----------------------------------------|
| ||----------------------------------------||----------------------------------------||--2-------------5------4----------------||--2------5------5------4------3---5-----||--0------5------3------2------3---5-----||---------3--------------------1---3-----|
|-------------------------------------------||-------------------------------------------||--9~~~---7~~~---5~~~----------10--9--------||-----------------------9~~~-----------7~~\-||-------------------------------------------||-------------------------------------------|
| ||-------------------------------------------||-------------------------------------------||--2-------------5------4-------------------||--2------5------5------4------3---5---7--\-||--0------5------3------2------3---5---7--\-||---------3--------------------1---3---5--\-|
Tap to rate this tab
 
# A B C D E F G H I J K L M N O P Q R S T U V W X Y Z