Paramore - Brick By Boring Brick tab

-------------------------------------------------------------------------------
			     Paramore - Brick by Boring Brick
-------------------------------------------------------------------------------

Rhythm Guitar Part - Standard Tuning - EADGBe 

Intro 4x

|-----------------------------||-----------------------------||--------6-----7------2-------||-4------6-(4x)7-(4x)-2-(16x)-||-4-(8x)-4-----5------0-------||-2---------------------------|
Verse 2x
|-----------------------------||-----------------------------||--------6------7------2------||-4------6-(2x)-7-(2x)-2-(8x)-| |-4-(4x)-4------5------0------||-2---------------------------|
Pre-Chorus
|----0~----0~------0~------0~---|----0~-----0~-----0~-----0~---||----0~----0~------0~------0~---|----0~-----0~-----0~-----0~---||----9~----9~------11~-----7~---|----9~-----9~-----11~----14~--||-9~----9~-----11~------7~------|-9~-----9~----11~----14~------||-7~----7~-----9~-------5~------|-7~-----7~----9~-----11~------||-------------------------------|------------------------------|
Chorus 2x
|---------------------------------||---------------------------------||-2-------6-----------------------||-2-(16x)-6-(16x)-4-------2-------||-0-------4-------4-(16x)-2-(16x)-||-----------------2-------0-------|
Post-Chorus
|------------||------------||-7--2-------||-7--2-(13x)-||-5--0-------||------------|
Intro
|-----------------------------||-----------------------------||--------6-----7------2-------||-4------6-(4x)7-(4x)-2-(16x)-||-4-(8x)-4-----5------0-------||-2---------------------------|
Verse 2x
|----------------------------||----------------------------||--------6-----7------2------||-4------6-(2x)7-(2x)-2-(8x)-| |-4-(4x)-4-----5------0------||-2--------------------------|
Pre-Chorus
|----0~----0~------0~-------0~-|-----0~----0~-----0~----0~--||----0~----0~------0~-------0~-|-----0~----0~-----0~----0~--||----9~----9~------11~------7~-|-----9~----9~-----11~---14~-||-9~----9~-----11~------7~-----|-9~-----9~----11~----14~----||-7~----7~-----9~-------5------|-7------7-----9------11-----||------------------------------|----------------------------|
Chorus 2x
|---------------------------------||---------------------------------||-2-------6-----------------------||-2-(16x)-6-(16x)-4-------2-------||-0-------4-------4-(16x)-2-(16x)-||-----------------2-------0-------|
Bridge
|---------------------------------||---------------------------------||-4-------7-------2---------------||-4-(16x)-7-(16x)-2-(16x)-2-------||-2-------5-------0-------2-(16x)-||-------------------------0-------|
|-----------------------------------------||-----------------------------------------||-11------6-6---4------9------7-7--4------||-x-(8x)--x-x---x-(8x)-x-(8x)-x-x--x-(8x)-||-9-------4-4---2------7------5-5--2------||-----------------------------------------|
|---------------------||---------------------||-2~---6~-------------| |-2~---6~---4~---2~---| 2x|-0~---4~---4~---2~---||-----------2~---0~---|
Chorus 2x
|---------------------------------||---------------------------------||-2-------6-----------------------||-2-(16x)-6-(16x)-4-------2-------| the second time, let the E power chord ring|-0-------4-------4-(16x)-2-(16x)-||-----------------2-------0-------|
Outro 4x
|-----------------------------||-----------------------------||--------6-----7------2-------| |-4------6-(4x)7-(4x)-2-(16x)-| palm muted|-4-(8x)-4-----5------0-------||-2---------------------------|
|------||------||-2~---||-2~---||-0~---||------|
************************************ | / slide up | \ slide down | h hammer-on | p pull-off | ~ vibrato | + harmonic | x Mute note | b Bend | pb Pre-bend | br Bend release | pbr Pre-bend release | brb Bend release bend ************************************
Tap to rate this tab
 
# A B C D E F G H I J K L M N O P Q R S T U V W X Y Z