Paramore - Let The Flames Begin tab version 1

----------------------------------------------------------------------------
			     Let The Flames Begin - Paramore
----------------------------------------------------------------------------



If you have any questions, suggestions or comments, post away. I'm open to hearing them.




Tuning - C#G#C#F#A#D#


Guitar 1:


Intro: |--------------------------|--------------------------||--3-----3-----3-----3-----|--------------------------||-----0-----0-----0-----0--|--3--0--3--0--3--0--3--0--||--------------------------|--------------------------||--------------------------|--------------------------||--------------------------|--------------------------|
--------------------------|--------------------------|--1-----1-----1-----1-----|--1-----1-----1-----1-----|-----0-----0-----0-----0--|-----0-----0-----0-----0--|--------------------------|--------------------------|--------------------------|--------------------------|--------------------------|--------------------------|
--------------------------|--------------------------|--3-----3-----3-----3-----|--------------------------|-----0-----0-----0-----0--|--3--0--3--0--3--0--3--0--|--------------------------|--------------------------|--------------------------|--------------------------|--------------------------|--------------------------|
--------------------------|--------------------------|--1-----1-----1-----1-----|--1-----1-----1-----1-----|-----0-----0-----0-----0--|-----0-----0-----0-----0--|--------------------------|--------------------------|--------------------------|--------------------------|--------------------------|--------------------------|
--------------------------|--------------------------|--3-----3-----3-----3-----|--------------------------|-----0-----0-----0-----0--|--3--0--3--0--3--0--3--0--|--------------------------|--------------------------|--------------------------|--------------------------|--------------------------|--------------------------|
--------------------------|--------------------------|--1-----1-----1-----1-----|--1-----1-----1-----1-----|-----0-----0-----0-----0--|-----0-----0-----0-----0--|--------------------------|--------------------------|--------------------------|--------------------------|--------------------------|--------------------------|
--------------------------|--------------------------|--3-----3-----3-----3-----|--------------------------|-----0-----0-----0-----0--|--3--0--3--0--3--0--3--0--|--------------------------|--------------------------|--------------------------|--------------------------|--------------------------|--------------------------|
--------------------------|--------------------------|--1-----1-----1-----1-----|--1-----1-----1-----1-----|-----0-----0-----0-----0--|-----0-----0-----0-----0--|--------------------------|--------------------------|--------------------------|--------------------------|--------------------------|--------------------------|
Verse:--------------------------|--------------------------|--3-----3-----3-----3-----|--------------------------|-----0-----0-----0-----0--|--3--0--3--0--3--0--3--0--|--------------------------|--------------------------|--------------------------|--------------------------|--------------------------|--------------------------|
--------------------------|--------------------------|--1-----1-----1-----1-----|--1-----1-----1-----1-----|-----0-----0-----0-----0--|-----0-----0-----0-----0--|--------------------------|--------------------------|--------------------------|--------------------------|--------------------------|--------------------------|
--------------------------|--------------------------|--3-----3-----3-----3-----|--------------------------|-----0-----0-----0-----0--|--3--0--3--0--3--0--3--0--|--------------------------|--------------------------|--------------------------|--------------------------|--------------------------|--------------------------|
--------------------------|--------------------------|--1-----1-----1-----1-----|--1-----1-----1-----1-----|-----0-----0-----0-----0--|-----0-----0-----0-----0--|--------------------------|--------------------------|--------------------------|--------------------------|--------------------------|--------------------------|
--------------------------|--------------------------|--3-----3-----3-----3-----|--------------------------|-----0-----0-----0-----0--|--3--0--3--0--3--0--3--0--|--------------------------|--------------------------|--------------------------|--------------------------|--------------------------|--------------------------|
--------------------------|--------------------------|--1-----1-----1-----1-----|--1-----1-----1-----1-----|-----0-----0-----0-----0--|-----0-----0-----0-----0--|--------------------------|--------------------------|--------------------------|--------------------------|--------------------------|--------------------------|
--------------------------|--------------------------|--3-----3-----3-----3-----|--------------------------|-----0-----0-----0-----0--|--3--0--3--0--3--0--3--0--|--------------------------|--------------------------|--------------------------|--------------------------|--------------------------|--------------------------|
--------------------------|--------------------------|--1-----1-----1-----1-----|--1-----1-----1-----1-----|-----0-----0-----0-----0--|-----0-----0-----0-----0--|--------------------------|--------------------------|--------------------------|--------------------------|--------------------------|--------------------------|
--------------------------|--------------------------|--3-----3-----3-----3-----|--------------------------|-----0-----0-----0-----0--|--3--0--3--0--3--0--3--0--|--------------------------|--------------------------|--------------------------|--------------------------|--------------------------|--------------------------|
--------------------------|--------------------------|--1-----1-----1-----1-----|--1-----1-----1-----1-----|-----0-----0-----0-----0--|-----0-----0-----0-----0--|--------------------------|--------------------------|--------------------------|--------------------------|--------------------------|--------------------------|
Chorus: --------------------------|--------------------------|--------------------------|--------------------------|--------------------------|--------------------------|--5--5--5--5--5--5--5--5--|--5--5--5--5--5--5--5--5--|--5--5--5--5--5--5--5--5--|--5--5--5--5--5--5--5--5--|--5--5--5--5--5--5--5--5--|--5--5--5--5--5--5--5--5--|
--------------------------|--------------------------|--------------------------|--------------------------|--3--3--3--3--3--3--3--3--|--3--3--3--3--3--3--3--3--|--3--3--3--3--3--3--3--3--|--3--3--3--3--3--3--3--3--|--1--1--1--1--1--1--1--1--|--1--1--1--1--1--1--1--1--|--------------------------|--------------------------|
--------------------------|--------------------------|--------------------------|--------------------------|--------------------------|--------------------------|--1--1--1--1--1--1--1--1--|--1--1--1--1--1--1--1--1--|--1--1--1--1--1--1--1--1--|--1--1--1--1--1--1--1--1--|--------------------------|--------------------------|
------------------------|--------------------|--1--1----1--1----1--1--|----1--1----1-------|--0--0----0--0----0--0--|----0--0----0-------|------------------------|--------------------|--3--3----3--3----3--3--|----3--3----3-------|------------------------|--------------------|
Repeat verse/chorus.
Bridge:---------------|------------|---------|-----------|---------------|------------|---------|---1~------|---------------|------------|---3~----|---0~------|-------5~------|----1~------|---3~----|-----------|-------5~------|----1~------|---1~----|---3~------|-------5~------|------------|---------|-----------|
---------------|------------|---------|-----------|---------------|------------|---------|---1~------|---------------|------------|---3~----|---0~------|-------5~------|----1~------|---3~----|-----------|-------5~------|----1~------|---1~----|---3~------|-------5~------|------------|---------|-----------|
Chorus: --------------------------|--------------------------|--------------------------|--------------------------|--------------------------|--------------------------|--5--5--5--5--5--5--5--5--|--5--5--5--5--5--5--5--5--|--5--5--5--5--5--5--5--5--|--5--5--5--5--5--5--5--5--|--5--5--5--5--5--5--5--5--|--5--5--5--5--5--5--5--5--|
--------------------------|--------------------------|--------------------------|--------------------------|--3--3--3--3--3--3--3--3--|--3--3--3--3--3--3--3--3--|--3--3--3--3--3--3--3--3--|--3--3--3--3--3--3--3--3--|--1--1--1--1--1--1--1--1--|--1--1--1--1--1--1--1--1--|--------------------------|--------------------------|
--------------------------|--------------------------|--------------------------|--------------------------|--------------------------|--------------------------|--1--1--1--1--1--1--1--1--|--1--1--1--1--1--1--1--1--|--1--1--1--1--1--1--1--1--|--1--1--1--1--1--1--1--1--|--------------------------|--------------------------|
------------------------|--------------------|--1--1----1--1----1--1--|----1--1----1-------|--0--0----0--0----0--0--|----0--0----0-------|------------------------|--------------------|--3--3----3--3----3--3--|----3--3----3-------|------------------------|--------------------|
End on:
|--------||--------||--------||---5~---||---5~---||---5~---|
Guitar 2: Intro:
------------1----6-------------------------|------1------------------6-----------------|-------------------------------7----5------|-------------------------------------------|-------------------------------------------|-------------------------------------------|
------------1----6-------------------------|------1------------------6----------8------|-------------------------------7-----------|-------------------------------------------|-------------------------------------------|-------------------------------------------|
Verse:
------------1----6-------------------------|------1------------------6-----------------|-------------------------------7----5------|-------------------------------------------|-------------------------------------------|-------------------------------------------|
------------1----6-------------------------|------1------------------6----------8------|-------------------------------7-----------|-------------------------------------------|-------------------------------------------|-------------------------------------------|
Pre-chorus: |--5--5--5--3--3--3--0--0--|--------------------------||--------------------------|--3--3--3--3--3--3--3--3--||--------------------------|--------------------------||--------------------------|--------------------------||--------------------------|--------------------------||--------------------------|--------------------------|
--5--5--5--3--3--3--0--0--|--------------------------|--------------------------|--3--3--3--3--3--3--3--3--|--------------------------|--------------------------|--------------------------|--------------------------|--------------------------|--------------------------|--------------------------|--------------------------|
Chorus: ---8-----8-----8-----8----|---8-----------------------|--------------------------|--------10h11--10----------|---x-----x-----x-----x----|---x-----------------------|--10----10----10----10----|--10-----------------------|--------------------------|---------------------------|--------------------------|---------------------------|
---8-----8-----8-----8----|---8-----------------------|--------------------------|--------10h11----10--------|---x-----x-----x-----x----|---x-----------------------|--10----10----10----10----|--10-----------------------|--------------------------|---------------------------|--------------------------|---------------------------|
---8-----8-----8-----8----|---8-----------------------|--------------------------|--------10h11----10--------|---x-----x-----x-----x----|---x-----------------------|--10----10----10----10----|--10-----------------------|--------------------------|---------------------------|--------------------------|---------------------------|
Repeat verse/pre-chorus/chorus.
Bridge: --10-------------------------------------------------|------8------8---------------------------------------|---------10-----10--------------------0--0-----------|--------------------8--7--8-----7--8-----------------|-----------------------------------------------------|-----------------------------------------------------|
--10-------------------------------------------------|------8------8---------------------------------------|---------10-----10--------------------0--0-----------|--------------------8--7--8-----7--8-----------------|-----------------------------------------------------|-----------------------------------------------------|
--10------------------------------------------------------------|------8------8--------------------------------------------------|---------10-----10--------------------0--0-------------------1--|--------------------8--7--8-----7--8----------2-----3-----------|----------------------------------------------------------------| x2----------------------------------------------------------------|
Final Chorus:
Chorus: ---8-----8-----8-----8----|---8-----------------------|--------------------------|--------10h11--10----------|---x-----x-----x-----x----|---x-----------------------|--10----10----10----10----|--10-----------------------|--------------------------|---------------------------|--------------------------|---------------------------|
---8-----8-----8-----8----|---8-----------------------|--------------------------|--------10h11----10--------|---x-----x-----x-----x----|---x-----------------------|--10----10----10----10----|--10-----------------------|--------------------------|---------------------------|--------------------------|---------------------------|
---8-----8-----8-----8----|---8-----------------------|--------------------------|--------10h11----10--------|---x-----x-----x-----x----|---x-----------------------|--10----10----10----10----|--10-----------------------|--------------------------|---------------------------|--------------------------|---------------------------|
Outro: --10-------------------------------------------------|------8------8---------------------------------------|---------10-----10--------------------0--0-----------|--------------------8--7--8-----7--8-----------------|-----------------------------------------------------|-----------------------------------------------------|
--10-------------------------------------------------|------8------8---------------------------------------|---------10-----10--------------------0--0-----------|--------------------8--7--8-----7--8-----------------|-----------------------------------------------------|-----------------------------------------------------|
--10------------------------------------------------------------|------8------8--------------------------------------------------|---------10-----10--------------------0--0-------------------1~-|--------------------8--7--8-----7--8----------2-----3-----------|----------------------------------------------------------------|----------------------------------------------------------------|
| / slide up | \ slide down | h hammer-on | p pull-off | ~ vibrato/let ring | + harmonic | x Mute note ============================================================================
Tap to rate this tab
 
# A B C D E F G H I J K L M N O P Q R S T U V W X Y Z