Hollow Man tab with lyrics by Parkway Drive - Easy chords and tabs for guitar

Parkway Drive – Hollow Man tab

This is only the intro as it is all i could be bothered to tab at the
minute. But if i get a good response then i shall tab the rest of it.
Enjoy =]

|-------------|------------|--------||-------------|------------|--------||-------------|------------|--------||-3h4h3----3--|-3h4h3----3-|-3h4----||-------4--1--|-------4--1-|------6-||-------------|------------|------6-|
|-------------|------------|--------||-------------|------------|--------||-------------|------------|--------||-3h4h3----3--|-3h4h3----3-|-3h4-6~-||-------4--1--|-------4--1-|--------||-------------|------------|--------|
Repeat that however many times
This is the 2nd guitars part|-----------|-----------|--------||-6h7p6-----|-6h7h6-----|-6h7----||-------6---|-------6---|--------||---------8-|---------8-|-----6~-||-----------|-----------|--------||-----------|-----------|--------|
|-----------|-----------|--------||-6h7p6-----|-6h7h6-----|-6h7-9~-||-------6---|-------6---|--------||---------8-|---------8-|--------||-----------|-----------|--------||-----------|-----------|--------|
Then ..
\3/ \3/ \3/ \3/|--------------------------||--------------------------||--------------------------||-------3-3-3--1-1-1-------||-1-1-1--------------4-4-4-||--------------------------|PM. . . . . . . . . . . .
\3/ \3/ \3/ \3/|--------------------------||--------------------------||--------------------------||-------3-3-3--1-1-1-------||-1-1-1--------------4-4-4-||--------------------------|PM. . . . . . . . . . . .
\3/ \3/ \3/ \3/|---------------------------||---------------------------||---------------------------||-------3-3-3--1-1-1--3-3-3-||-1-1-1---------------------||---------------------------|PM. . . . . . . . . . . .
\3/ \3/ \3/ \3/|---------------------------||---------------------------||---------------------------||-4-4-4--3-3-3--1-1-1-------||---------------------4-4-4-||---------------------------|PM. . . . . . . . . . . .
Repeat that however many times Then
|------------------|-----------------|-------------------------------------||------------------|-----------------|-------------------------------------||------5-5---------|-----5-5---------|-----5-5-----5-5--6-6--5-5--8-8--5-5-||-1-1------6-6-3-3-|-1-1-----6-6-3-3-|-1-1-----6-6-------------------------||-1-1--------------|-1-1-------------|-1-1---------------------------------||-1-1--------------|-1-1-------------|-1-1---------------------------------|
Repeat that twice then just hold
|-----||-----||-----||-1~--||-1~--||-1~--|
for a few bars. Thats about half the song. When i play it to me it sounds pretty much perfect. but that just be my ears. if a bit doesnt sound right, let me know which bit and ill do my best correct it. Cheers ;)
Please rate this tab:
x1.0