Parkway Drive – Frostbite tab

Parkway Drive - Frostbite            tuning: B F# B E G# C#
First tab… let me know of I got anything wrong…

||---------------------------------------------------------------|||---------------------------------------------------------------|||---------------------------------------------------------------|||-------9------7------5---4----4-----------4-------5----7----5--|||-7-------------------------------------------------------------|||---------------------------------------------------------------|
|-------------------------------------------------------------||x4|-------------------------------------------------------------|||-----------9-------------------------------------------------|||----10----------10--12--10--10--9-----9--10--9--7--5--4------|||-------------------------------------------------------------|||-------------------------------------------------------------||
|----------------------------------------------------------------||----------------------------------------------------------------||-----------------------------------------------4----------------||-----------------------------------------------5-------4--------||--2-2----------2-2-0-0-------2-2-----------------------5--------||--2-2----------2-2-0-0-------2-2----------5-5-----0-0-----------|
|----------------------------------------------------------------||----------------------------------------------------------------||--------------5-4----------4------------------------------------||--------------------7--5-------7---5---4------------------------||----------------------------------------------------------------||----------------------------------------------------------------|
|----------------------------------------------------------------||----------------------------------------------------------------||----------------------------------------------------------------||---------------4-----2-----------5-----4-----0----2-------------||---------------------------2------------------------------------||---------2--2-----2-----2-----2-----2-----2----2-----2----------|
|-------------------------------------------------------------||-------------------------------------------------------------||-------------------------2-----------------2--4--2-----------||-------------4-----5-----------4-----5--------------4--------||-------------------------------------------------------------||-------0--0-----0-----0-----0-----0-----0--------------------|
|-------------------------------------------------------||-------------------------------------------------------||----------------------------------4--------------------||----------4-----2-----------------5--------4-----------||----------------------2--------------------5-----------||----2--2-----2-----2-----2--5--5-----0--0--------------|
|----------------------------------------------------------------||----------------------------------------------------------------||----------------------------------------------------------------||-------0-0-0-0-2-2-2-2-4-4-4-4-------4-4-4-4-5-5-5-5-0-0-0-0----||----------------------------------------------------------------||--2------------------------------4------------------------------|
|----------------------------------------------------------------||----------------------------------------------------------------||----------------------------------------------------------------||---------------4-----2-----------5-----4-----0----2-------------||---------------------------2------------------------------------||---------2--2-----2-----2-----2-----2-----2----2-----2----------|
|-------------------------------------------------------------||-------------------------------------------------------------||-------------------------2-----------------2--4--2-----------||-------------4-----5-----------4-----5--------------4--------||-------------------------------------------------------------||-------0--0-----0-----0-----0-----0-----0--------------------|
|------------------------------------------------------||------------------------------------------------------||----------------------------------4-------------------||----------4-----2-----------------5--------4----------||----------------------2--------------------5----------||----2--2-----2-----2-----2--5--5-----0--0-------------|
|----------------------------------------------------------------||----------------------------------------------------------------||--------------5-4----------4------------------------------------||--------------------7--5-------7---5---4------------------------||----------------------------------------------------------------||----------------------------------------------------------------|
|----------------------------------------------------------------||----------------------------------------------------------------||-------------------11--------------------6b1/4------------------||-----9--------9-12--------------5-----7-------------------------||-----9--------------------------5-------------------------------||-----9--------------------------5-------------------------------|
|----------------------------------------------------------------||----------------------------------------------------------------||----------------------------------------------------------------||----2-------------4-----4---------------------------------------||----2-------------------------7-----7-----5-----5-----7-----7---||----2----------5-----5-----5-----5-----5-----5-----5-----5-----5|
|----------------------------------------------------------------||----------------------------------------------------------------||-------------------11--------------------6b1/4------------------||-----9--------9-12--------------5-----7-------------------------||-----9--------------------------5-------------------------------||-----9--------------------------5-------------------------------|
|----------------------------------------------------------------||----------------------------------------------------------------||------------------4-----4---------------------------------------||----2-------------------------7-----7-----5-----5-----4-----4---||----2-----------------------------------------------------------||----2----------5-----5-----5-----5-----5-----5-----5-----5-----5|
||-----------------------------------------------===----------||x2||------------------------------------------------------------||||------------------------------------------------------------||||---0--------------------------------------------------------||||---0----0-0-0-0-0-0---------0-0-0-0----------0-0-0-0-0-0----||||---0----0-0-0-0-0-0---------0-0-0-0----------0-0-0-0-0-0----||
||----------------------------------------------------------|||----------------------------------------------------------|||----------------------------------------------------------|||----0-----------------------------------------------------|||----0----0-0-0-0-0-0---------0-0-0-0----------0-0-0-0-0-0-|||----0----0-0-0-0-0-0---------0-0-0-0----------0-0-0-0-0-0-|
|-------------------------------------------------------------||x3|-------------------------------------------------------------|||-------------------------------------------------------------|||-------------0-----------------------------------------------|||----0-0-0-0--0-----0-0-0-0------0-0-0-0------0-0-0-0-0-0-----|||----0-0-0-0--0-----0-0-0-0------0-0-0-0------0-0-0-0-0-0-----||
|----------------------------------------------------------||----------------------------------------------------------||----------------------------------------------------------||----0-----------------------------------------------------||----0----0-0-0-0-0-0---------0-0-0-0----------0-0-0-0-0-0-||----0----0-0-0-0-0-0---------0-0-0-0----------0-0-0-0-0-0-|
|----------------------------------------------------------------||----------------------------------------------------------------||----------------------------------------------------------------||----0-----------------------------------------------------------||----0----0-0-0-0-0-0---------0-0-0-0----------0-0-0-0-----------||----0----0-0-0-0-0-0---------0-0-0-0----------0-0-0-0--12\------|
|----------------------------------------------------------------||----------------------------------------------------------------||----------------------------------------------------------------||---------------4-----2-----------5-----4-----0----2-------------||---------------------------2------------------------------------||---------2--2-----2-----2-----2-----2-----2----2-----2----------|
|-------------------------------------------------------------||-------------------------------------------------------------||-------------------------2-----------------2--4--2-----------||-------------4-----5-----------4-----5--------------4--------||-------------------------------------------------------------||-------0--0-----0-----0-----0-----0-----0--------------------|
|------------------------------------------------------||------------------------------------------------------||----------------------------------4-------------------||----------4-----2-----------------5--------4----------||----------------------2--------------------5----------||----2--2-----2-----2-----2--5--5-----0--0-------------|
|----------------------------------------------------------------||----------------------------------------------------------------||----------------------------------------------------------------||-------0-0-0-0-2-2-2-2-4-4-4-4-------4-4-4-4-5-5-5-5-0-0-0-0----||----------------------------------------------------------------||--2------------------------------4------------------------------|
|----------------------------------------------------------------||----------------------------------------------------------------||----------------------------------------------------------------||---------------4-----2-----------5-----4-----0----2-------------||---------------------------2------------------------------------||---------2--2-----2-----2-----2-----2-----2----2-----2----------|
|-------------------------------------------------------------||-------------------------------------------------------------||-------------------------2-----------------2--4--2-----------||-------------4-----5-----------4-----5--------------4--------||-------------------------------------------------------------||-------0--0-----0-----0-----0-----0-----0--------------------|
|------------------------------------------------------||------------------------------------------------------||----------------------------------4-------------------||----------4-----2-----------------5--------4----------||----------------------2--------------------5----------||----2--2-----2-----2-----2--5--5-----0--0-------------|
|----------------------------------------------------------------||----------------------------------------------------------------||--------------5-4----------4------------------------------------||--------------------7--5-------7---5---4------------------------||----------------------------------------------------------------||----------------------------------------------------------------|
|----------------------------------------------------------------||----------------------------------------------------------------||-------------------11--------------------6b1/4------------------||-----9--------9-12--------------5-----7-------------------------||-----9--------------------------5-------------------------------||-----9--------------------------5-------------------------------|
|----------------------------------------------------------------||----------------------------------------------------------------||----------------------------------------------------------------||----2-------------4-----4---------------------------------------||----2-------------------------7-----7-----5-----5-----7-----7---||----2----------5-----5-----5-----5-----5-----5-----5-----5-----5|
|----------------------------------------------------------------||----------------------------------------------------------------||-------------------11--------------------6b1/4------------------||-----9--------9-12--------------5-----7-------------------------||-----9--------------------------5-------------------------------||-----9--------------------------5-------------------------------|
|--------------------------------------------||--------------------------------------------||--------------------------------------------||--2-----------------------------------------||--2-----------------------------------------||--2-----------------------------------------|
Do each of these 4 times.|---------------------| \ |---------------------| \|---------------------| \ |---------------------| \ |------5--8--5--0-----| \|---------------------| \
\|---------------------| ||---------------------| | |---------------------| ||---------------------| | |------7--10--7--0----| ||---------------------| |
Do this part 3 times.|---------------------| ||---------------------| ||---------------------| ||------3--7--3--0-----| ||---------------------| ||---------------------| |
/|---------------------| /|---------------------| /|---------------------| / |------5--7--5--0-----| /|---------------------| /|---------------------| /
|---------------------| four times each for these.|---------------------| |---------------------| |---------------------| |------5--8--5--0-----| |---------------------|
|---------------------| |---------------------| |---------------------| |---------------------| |------7--10--7--0----| |---------------------|
|---------------------| |---------------------| |---------------------| |------3--7--3--0-----| |---------------------| |---------------------|
then…|--------------------------------------------||--------------------------------------------||--------------------------------------------||--7------------5-------3--------------------||--7------------5-------3--------------------||--7------------5-------3--------------------|
||----------------------------------------------------------|||----------------------------------------------------------|||----------------------------------------------------------|||----0-----------------------------------------------------|||----0----0-0-0-0-0-0---------0-0-0-0----------0-0-0-0-0-0-|||----0----0-0-0-0-0-0---------0-0-0-0----------0-0-0-0-0-0-|
|-------------------------------------------------------------||x2|-------------------------------------------------------------|||-------------------------------------------------------------|||-------------0-----------------------------------------------|||----0-0-0-0--0-----0-0-0-0------0-0-0-0------0-0-0-0-0-0-----|||----0-0-0-0--0-----0-0-0-0------0-0-0-0------0-0-0-0-0-0-----||
|------------------------------------------------------------||------------------------------------------------------------||------------------------------------------------------------||--5----7----8----10----5----7----8----7---5--3--------------||--5----7----8----10----5----7----8----7---5--3--------------||--5----7----8----10----5----7----8----7---5--3--------------|(this is condensed)
||---------------------------------------------------------||x4||---------------------------------------------------------||||---------------------------------------------------------||||---0-----------------------------------------------------||||---0----0-0-0-0-0-0---------0-0-0-0----------0-0-0-0-0-0-||||---0----0-0-0-0-0-0---------0-0-0-0----------0-0-0-0-0-0-||
Have fun
Please rate this tab:
x1.0