Parkway Drive – Feed Them To The Pigs tab ver. 2

PARKWAY DRIVE

FEED THEM TO THE PIGS

A#-F-A#-D#-G-C


TABBED BY andherembrace





-----__-------------------------------__---------------------------------|----/ \-----------------------------/ \--------------------------------|---9-10-9--7------------------------9-10-9--7----------------------------|P--X--X-X--X------------------------X--X-X--X-------------------_--------|S--7/-8\7--5------------------------7/-8\7--5--------/\---/\---/ \----/\-|-\-------0---0-000-0-000-0-000-000--------0---0-000-5858-5757-710710-7878| * * *** * *** * *** *** * * ***
----__-------------------------------__----------------------------------|---/ \-----------------------------/ \---------------------------------|--9-10-9--7------------------------9-10-9--7-----------------------------|--X--X-X--X------------------------X--X-X--X-------------------_---------|--7/-8\7--5------------------------7/-8\7--5--------/\---/\---/ \----/\--|--------0---0-000-0-000-0-000-000--------0---0-000-5858-5757-710710-7878-| * * *** * *** * *** *** * * ***
----__-------------------------------__----------------------------------|---/ \-----------------------------/ \---------------------------------|--9-10-9--7------------------------9-10-9--7-----------------------------|--X--X-X--X------------------------X--X-X--X-------------------_---------|--7/-8\7--5------------------------7/-8\7--5--------/\---/\---/ \----/\--|--------0---0-000-0-000-0-000-000--------0---0-000-5858-5757-710710-7878-|
* * *** * *** * *** *** * * *** ----__-------------------------------__-------------|---/ \-----------------------------/ \------------|--9-10-9--7------------------------9-10-9--7--------|--X--X-X--X------------------------X--X-X--X--------|--7/-8\7--5------------------------7/-8\7--5--------|--------0---0-000-0-000-0-000-000--------0---0-000--| * * *** * *** * *** *** * * ***
-------------------------------------------------------|-------------------------------------------------------|-------------------------------------------------------|-------------_-----------_------_-------__-------__----|--/\---/\---/ \----/\---/ \----/ \-----/ \-----/ \---|-5858-5757-710710-7878-812812-810810-10141014-10121012-|
-------------------------------------------------------|-------------------------------------------------------|-------------------------------------------------------|-------------_-----------_------_-------__-------__----|--/\---/\---/ \----/\---/ \----/ \-----/ \-----/ \---|-5858-5757-710710-7878-812812-810810-10141014-10121012-|
---------------------------------------|---------------------------------------|---------------------------------------|---------------------------------------|---------------------------------------|5-8-5-7-7-10-7-8-8-12-8-10-10-14-10-12-|
----------------------------------------|----------------------------------------|----------------------------------------|----------------------------------------|-5-8-5-7-7-10-7-8-8-12-8-10-10-14-10-12-|-5-8-5-7-7-10-7-8-8-12-8-10-10-14-10-12-| * * * * * * * * * * * * * * * *
0:30
------------------------------------------------------|------------------------------------------------------|------------------------------------------------------|-0----0-00-00--0----00-00-00-0----0-00-00-7-3-2-5-3-2-|-0----0-00-00--0----00-00-00-0----0-00-00-7-3-2-5-3-2-|-0----0-00-00--0----00-00-00-0----0-00-00-7-3-2-5-3-2-|
* ** ** ** ** ** * ** **------------------------------------------------------|------------------------------------------------------|------------------------------------------------------|-0----0-00-00--0----00-00-00-0----0-00-00-7-3-2-5-3-2-|-0----0-00-00--0----00-00-00-0----0-00-00-7-3-2-5-3-2-|-0----0-00-00--0----00-00-00-0----0-00-00-7-3-2-5-3-2-|
* ** ** ** ** ** * ** **------------------------------------------------------|------------------------------------------------------|------------------------------------------------------|-0----0-00-00--0----00-00-00-0----0-00-00-7-3-2-5-3-2-|-0----0-00-00--0----00-00-00-0----0-00-00-7-3-2-5-3-2-|-0----0-00-00--0----00-00-00-0----0-00-00-7-3-2-5-3-2-| * ** ** ** ** ** * ** **
------------------------------------------------------|------------------------------------------------------|------------------------------------------------------|-0----0-00-00-------00-00-00------0-00-00-7-3-2-5-3-2-|-0----0-00-00-------00-00-00------0-00-00-7-3-2-5-3-2-|-0----0-00-00-------00-00-00------0-00-00-7-3-2-5-3-2-|
* ** ** ** ** ** * ** **------------------------------------------------|----------------------3-------------------------|----------------------2-------------------------|--0-------------------0--------------P----------|--0-------------------0---------------S---------|--0-------------------0----------------\--------|
1:02
------------------------------------------------------------------|------------------------------------------------------------------|------------------------------------------------------------_-----|---------------------------------------------5-------------/ \----|-----5---5---8---8---7---7---3--------5---5-------8---7---5-7-5-3-|-0-0---0---0---0---0---0---0------0-0---0---0---0---0---0---------| * * * * * * * * * * * * * * *
------------------------------------------------------------------|------------------------------------------------------------------|------------------------------------------------------------------|---------------------------------------------7----5---------------|-----5---5---8---8---7---7---3--------5---5-----------8---7-8-10--|-0-0---0---0---0---0---0---0------0-0---0---0---0---0---0---------| * * * * * * * * * * * * * * *
1:11
L------------------------------------------------------------------|------------------------------------------------------------------|------------------------------------------------------------_-----|---------------------------------------------5-------------/ \----|-----5---5---8---8---7---7---3--------5---5-------8---7---5-7-5-3-|-0-0---0---0---0---0---0---0------0-0---0---0---0---0---0---------|
* * * * * * * * * * * * * * * R-------------------------------------------------------------------|-------------------------------------------------------------------|------------------------------------------------------------__-----|-------------7---7----------------------------8---7--------/ \----|-----8---8-----------10--10--7--------8---8-----------10--8-10-8-7-|-0-0---0---0---0---0---0---0------0-0---0---0---0---0---0----------| * * * * * * * * * * * * * * *
L------------------------------------------------------------------|------------------------------------------------------------------|------------------------------------------------------------_-----|-----------------------------------------------------------/ \----|-----5---5---8---8---7---7---3--------5---5---8---3---5---7-8-7-3-|-0-0---0---0---0---0---0---0------0-0---0---0---0---0---0---------|
* * * * * * * * * * * * * * * R-------------------------------------------------------------------|-------------------------------------------------------------------|------------------------------------------------------------__-----|-------------7---7----------------------------7------------/ \----|-----8---8-----------10--10--7--------8---8-------7---8---8-10-8-7-|-0-0---0---0---0---0---0---0------0-0---0---0---0---0---0----------| * * * * * * * * * * * * * * *
1:20
L B L B----__-------------------------------__----------------------------------|---/ \-----------------------------/ \---------------------------------|--9-10-9--7------------------------9-10-9--7-----------------------------|--X--X-X--X------------------------X--X-X--X-------------------_---------|--7/-8\7--5------------------------7/-8\7--5--------/\---/\---/ \----/\--|--------0---0-000-0-000-0-000-000--------0---0-000-5858-5757-710710-7878-|
* * *** * *** * *** *** * * *** R B----__-------------------------------__----------------------------------|---/ \-----------------------------/ \---------------------------------|--9-10-9--7------------------------9-10-9--7-----------------------------|--X--X-X--X------------------------X--X-X--X--------------P--------------|--7/-8\7--5------------------------7/-8\7--5\--------------S-------------|--------0---0-000-0-000-0-000-000--------0------------------\------------| * * *** * *** * *** *** *
1:30
----__-------------------------------__----------------------------------|---/ \-----------------------------/ \---------------------------------|--9-10-9--7------------------------9-10-9--7-----------------------------|--X--X-X--X------------------------X--X-X--X-------------------_---------|--7/-8\7--5------------------------7/-8\7--5--------/\---/\---/ \----/\--|--------0---0-000-0-000-0-000-000--------0---0-000-5858-5757-710710-7878-| * * *** * *** * *** *** * * ***
----__-------------------------------__----------------------------------|---/ \-----------------------------/ \---------------------------------|--9-10-9--7------------------------9-10-9--7-----------------------------|--X--X-X--X------------------------X--X-X--X-------------------_---------|--7/-8\7--5------------------------7/-8\7--5--------/\---/\---/ \----/\--|--------0---0-000-0-000-0-000-000--------0---0-000-5858-5757-710710-7878-| * * *** * *** * *** *** * * ***
1:39
L---__--------------------------------__----------------------------------|--/ \------------------------------/ \---------------------------------|12-14-12-10-----------------------12-14-12--10---------------------------|--X--X-X--X------------------------X--X-X---X-------------------_--------|10/12\10--8-----------------------10/12\10--8--------/\---/\---/ \----/\-|--------0---0-000-0-000-0-000-000---------0---0-000-5858-5757-710710-7878|
* * *** * *** * *** *** * * *** R----__-------------------------------__----------------------------------|---/ \-----------------------------/ \---------------------------------|--9-10-9--7------------------------9-10-9--7-----------------------------|--X--X-X--X------------------------X--X-X--X-------------------_---------|--7/-8\7--5------------------------7/-8\7--5--------/\---/\---/ \----/\--|--------0---0-000-0-000-0-000-000--------0---0-000-5858-5757-710710-7878-|
* * *** * *** * *** *** * * *** L---__--------------------------------__-------------|--/ \------------------------------/ \------------|12-14-12-10-----------------------12-14-12--10------|--X--X-X--X------------------------X--X-X---X-------|10/12\10--8-----------------------10/12\10--8-------|--------0---0-000-0-000-0-000-000---------0---0-000-|
* * *** * *** * *** *** * * *** R----__-------------------------------__-------------|---/ \-----------------------------/ \------------|--9-10-9--7------------------------9-10-9--7--------|--X--X-X--X------------------------X--X-X--X--------|--7/-8\7--5------------------------7/-8\7--5--------|--------0---0-000-0-000-0-000-000--------0---0-000--| * * *** * *** * *** *** * * ***
-------------------------------------------------------|-------------------------------------------------------|-------------------------------------------------------|-------------_-----------_------_-------__-------__----|--/\---/\---/ \----/\---/ \----/ \-----/ \-----/ \---|-5858-5757-710710-7878-812812-810810-10141014-10121012-|
---------------------------------------|---------------------------------------|---------------------------------------|---------------------------------------|---------------------------------------|5-8-5-7-7-10-7-8-8-12-8-10-10-14-10-12-|
-------------------------------------------------------|-------------------------------------------------------|-------------------------------------------------------|-------------_-----------_------_-------__-------__----|--/\---/\---/ \----/\---/ \----/ \-----/ \-----/ \---|-5858-5757-710710-7878-812812-810810-10141014-10121012-|
----------------------------------|----------------------------------|----------------------------------|----------------------------------|-5-8-5-7-7-10-7-8-8-12-8-10-14----|-5-8-5-7-7-10-7-8-8-12-8-10-14\---| * * * * * * * * * * * *
R B------------------------------------------------------|------------------------------------------------------|------------------------------------------------------|-0----0-00-00-------00-00-00------0-00-00-7-3-2-5-3-2-|-0----0-00-00-------00-00-00------0-00-00-7-3-2-5-3-2-|-0----0-00-00-------00-00-00------0-00-00-7-3-2-5-3-2-|
* ** ** ** ** ** * ** ** 1 B------------------------------------------------------|------------------------------------------------------|------------------------------------------------------|-0----0-00-00-------00-00-00------0-00-00-7-3-2-5-3-2-|-0----0-00-00-------00-00-00------0-00-00-7-3-2-5-3-2-|-0----0-00-00-------00-00-00------0-00-00-7-3-2-5-3-2-| * ** ** ** ** ** * ** **
------------------------------------------------------|------------------------------------------------------|------------------------------------------------------|-0----0-00-00-------00-00-00------0-00-00-7-3-2-5-3-2-|-0----0-00-00-------00-00-00------0-00-00-7-3-2-5-3-2-|-0----0-00-00-------00-00-00------0-00-00-7-3-2-5-3-2-| * ** ** ** ** ** * ** **
------------------------------------------------------|------------------------------------------------------|------------------------------------------------------|-0----0-00-00-------00-00-00------0-00-00-7-3-2-5-3-2-|-0----0-00-00-------00-00-00------0-00-00-7-3-2-5-3-2-|-0----0-00-00-------00-00-00------0-00-00-7-3-2-5-3-2-| * ** ** ** ** ** * ** **
------------------------|------------------------|------------------------|-0-----0----------------|-0-----0----------------|-0-----0--|-------------|
Please rate this tab:
x1.0