Parkway Drive - Home Is For The Heartless tab version 5

PARKWAY DRIVE 

HOME IS FOR THE HEARTLESS

B-F#-B-E-G#-C#


TABBED BY andherembrace






0:29

-----------------------------------------------------------|-----------------------------------------------------------|--9---9--9-7--7-7-7-5--5-5-5-4-4-5-------------------------|-10--10-10-9--9-9-9-7--7-7-7-5-5-7\--3---------------------|-------------------------------------3---------------------|-------------------------------------3---------------------| * * * * * * * * *
-------------------------------------------------------------------------|-------------------------------------------------------------------------|-------------------------------------------------------------------------|----12--------12------------------------12--------12---------------------|-------------------------------------------------------------------------|-8-----8--10-----10-0--0-0-0-0-0-0-0-8-----8--10-----10-0--00000-000-000-| * * * * * * ***** *** ***
-------------------------------------------------------------------------|-------------------------------------------------------------------------|---------------------------------------------------------9-------10------|----12--------12------------------------12--------12-------10-------12---|-------------------------------------------------------------10-------12-|-8-----8--10-----10-0--0-0-0-0-0-0-0-8-----8--10-----10------------------| * * * * * *
0:54
L-------------------------------------------------------------------------|-------------------------------------------------------------------------|-------------------------------------------------------------------------|----12--------12------------------------12--------12---------------------|-------------------------------------------------------------------------|-8-----8--10-----10-0--0-0-0-0-0-0-0-8-----8--10-----10-0--00000-000-000-|
* * * * * * ***** *** ***R-------------------------------------------------------------------------|-10----10-----------------------------10----10---------------------------|-10-10-10-12---9---10-----------------10-10-10-12---9---10---------------|----12----12--10---12--------------------12----12--10---12---------------|-------------------------------------------------------------------------|----------------------0-0-0-0-0-0-0-----------------------00000-000-000--| | | * * * * * * | | ***** *** ***
L-------------------------------------------------------------------------|-------------------------------------------------------------------------|---------------------------------------------------------9-------10------|----12--------12------------------------12--------12-------10-------12---|-------------------------------------------------------------10-------12-|-8-----8--10-----10-0--0-0-0-0-0-0-0-8-----8--10-----10------------------|
* * * * * * R--------------------------------------------------------------------------|-10----10-----------------------------10----10----------------------------|-10-10-10-12---9---10-----------------10-10-10-12---9---9--------10-------|----12----12--10---12--------------------12----12--10------10--------12---|-------------------------------------------------------------10--------12-|-----------------------0-0-0-0-0-0-0--------------------------------------| | | * * * * * * |
1:07
1--------------------------------------------------|-------------------------------8~-----------------|------4------4~-------5~----------------5~--------|-3-------5~-----7~--------9~-------9~-------7~----|-3------------------------------------------------|-3------------------------------------------------|
OVERDUB------------------------------^-------------------|---------------------^------20-8-------^----------|-------------------17-5---^-------^--17-5---^-----|------------------------21-9----21-9------19-7----|--------------------------------------------------|--------------------------------------------------|
2--------------------------------------------------|--------------------------------------------------|--------------------------------------------------|--------------------------------------------------|-3-------5------7---------------------------------|-3-------5------7---------------------------------|
1--------------------------------------------------------|--------------------------------------------------------|------4------4~-----9--9--9-7--7-7-7-5--5-5-5-4-4-5-5---|-3-------5~-----7~-10-10-10-9--9-9-9-7--7-7-7-5-5-7-7---|-3------------------------------------------------------|-3------------------------------------------------------|
* * * * * * * * *2--------------------------------------------------------|--------------------------------------------------------|--------------------9--9--9-7--7-7-7-5--5-5-5-4-4-5-5---|-------------------10-10-10-9--9-9-9-7--7-7-7-5-5-7-7---|-3-------5----------------------------------------------|-3-------5----------------------------------------------| * * * * * * * * *
1--------------------------------------------------|-------------------------------8~-----------------|------4------4~-------5~----------------5~--------|-3-------5~-----7~--------9~-------9~-------7~----|-3------------------------------------------------|-3------------------------------------------------|
OVERDUB------------------------------^-------------------|---------------------^------20-8-------^----------|-------------------17-5---^-------^--17-5---^-----|------------------------21-9----21-9------19-7----|--------------------------------------------------|--------------------------------------------------|
2--------------------------------------------------|--------------------------------------------------|--------------------------------------------------|--------------------------------------------------|-3-------5------7---------------------------------|-3-------5------7---------------------------------|
1--------------------------------------------------------|--------------------------------------------------------|------4~-----4~-----9--9--9-7--7-7-7-5--5-5-5-4-4-5-5---|-3-------5~-----7~-10-10-10-9--9-9-9-7--7-7-7-5-5-7-7---|-3------------------------------------------------------|-3------------------------------------------------------|
* * * * * * * * *2--------------------------------------------------------|--------------------------------------------------------|--------------------9--9--9-7--7-7-7-5--5-5-5-4-4-5-5---|-------------------10-10-10-9--9-9-9-7--7-7-7-5-5-7-7---|-3-------5----------------------------------------------|-3-------5----------------------------------------------| * * * * * * * * *
1:35
-5-----------5-------------------5-----------5------------------|-----8-----------8-------8-----------8-----------8-------8------|---------7-----------7-------7-----------7-----------7-------7--|----------------------------------------------------------------|----------------------------------------------------------------|----------------------------------------------------------------|
1-5-----------5-------------------5-----------5------------------|-----8-----------8-------8-----------8-----------8-------8------|---------7-----------7-------7-----------7-----------7-------7--|----------------------------------------------------------------|----------------------------------------------------------------|----------------------------------------------------------------|
217-5---------15-5------------15-5-17-5---------15-5------------15-5-|----17-8---------15-8----15-8---------17-8---------15-8----15-8-----|--------17-7---------17-7-----------------17-7---------17-7---------|--------------------------------------------------------------------|--------------------------------------------------------------------|--------------------------------------------------------------------| T T T T T T T T T T T T T T T T
1:48 _______________ _______________ 1 / \ / \ -12-0-5-7-(12)8-7-5-0-12-0-5-7-(12)8-7-5-0--|--------------------------------------------|--------------------------------------------|--------------------------------------------|--------------------------------------------|--------------------------------------------|
T T T T 2--------------------------------------------|--------------------------------------------|--------------------------------------------|--------------------------------------------|------3--------------------3----------------|-3333-3----------------333-3----------------| **** ***
1:50
_______________ _______________ 1 / \ / \ -13-0-5-7-(13)8-7-5-0-13-0-5-7-(13)8-7-5-0--|--------------------------------------------|--------------------------------------------|--------------------------------------------|--------------------------------------------|--------------------------------------------|
T T T T 2--------------------------------------------|--------------------------------------------|--------------------------------------------|--------------------------------------------|------5-------------------5-----------------|-5555-5---------------555-5-----------------| **** ***
1:52 _______________ _______________ 1 / \ / \ -15-0-5-7-(15)8-7-5-0-15-0-5-7-(15)8-7-5-0--|--------------------------------------------|--------------------------------------------|--------------------------------------------|--------------------------------------------|--------------------------------------------|
T T T T 2--------------------------------------------|--------------------------------------------|--------------------------------------------|--------------------------------------------|------7--------------------7----------------|-7777-7----------------777-7----------------| **** ***
_______________ _______________ 1 / \ / \ -15-0-5-7-(15)8-7-5-0-17-0-5-7-(17)8-7-5-0--|--------------------------------------------|--------------------------------------------|--------------------------------------------|--------------------------------------------|--------------------------------------------|
T T T T 2--------------------------------------------|--------------------------------------------|--------------------------------------------|--------------------------------------------|----------10-----------------12-------------|-10101010-10----------121212-12-------------| * * * * * * *
_______________ _______________ 1 / \ / \ -12-0-5-7-(12)8-7-5-0-12-0-5-7-(12)8-7-5-0--|--------------------------------------------|--------------------------------------------|--------------------------------------------|--------------------------------------------|--------------------------------------------|
T T T T 2--------------------------------------------|--------------------------------------------|--------------------------------------------|--------------------------------------------|------3--------------------3----------------|-3333-3----------------333-3----------------| **** ***
_______________ _______________ 1 / \ / \ -13-0-5-7-(13)8-7-5-0-13-0-5-7-(13)8-7-5-0--|--------------------------------------------|--------------------------------------------|--------------------------------------------|--------------------------------------------|--------------------------------------------|
T T T T 2--------------------------------------------|--------------------------------------------|--------------------------------------------|--------------------------------------------|------5-------------------5-----------------|-5555-5---------------555-5-----------------| **** ***
_______________ _______________ 1 / \ / \ -15-0-5-7-(15)8-7-5-0-15-0-5-7-(15)8-7-5-0--|--------------------------------------------|--------------------------------------------|--------------------------------------------|--------------------------------------------|--------------------------------------------|
T T T T 2--------------------------------------------|--------------------------------------------|--------------------------------------------|--------------------------------------------|------7--------------------7----------------|-7777-7----------------777-7----------------| **** ***
_______________ _______________ 1 / \ / \ -15-0-5-7-(15)8-7-5-0-17-0-5-7-(17)8-7-5-0--|--------------------------------------------|--------------------------------------------|--------------------------------------------|--------------------------------------------|--------------------------------------------|
T T T T 2--------------------------------------------|--------------------------------------------|--------------------------------------------|--------------------------------------------|----------10-----------------12-------------|-10101010-10----------121212-12-------------| * * * * * * *
2:02
1 ^ ^ ^ ^ ^ ^ ^ ^-17-875-17-875-17-875-17-875-20-875-20-875-20-875-20-875-|---------------------------------------------------------|---------------------------------------------------------|---------------------------------------------------------|---------------------------------------------------------|---------------------------------------------------------|
T T T T T T T T2----------------------------------------------------------------|----------------------------------------------------------------|----------------------------------------------------------------|----------------------------------------------------------------|----------------------------------------------------------------|3-3-3-3-3-3-3-3-3-3-3-3-3-3-3-3-5-5-5-5-5-5-5-5-5-5-5-5-5-5-5-5-|* * * * * * * * * * * * * * * * * * * * * * * * * * * * * * * *
1 ^ ^ ^ ^ ^ ^ ^ ^-19-875-19-875-19-875-19-875-15-875-15-875-15-875-15-875-|---------------------------------------------------------|---------------------------------------------------------|---------------------------------------------------------|---------------------------------------------------------|---------------------------------------------------------|
T T T T T T T T2-----------------------------------------------------------------|-----------------------------------------------------------------|-----------------------------------------------------------------|-----------------------------------------------------------------|-----------------------------------------------------------------|7-7-7-7-7-7-7-7-7-7-7-7-7-7-7-7-1010101010101010-1212121212121212|* * * * * * * * * * * * * * * * * * * * * * * * * * * * * * * *
1 ^ ^ ^ ^ ^ ^ ^ ^-17-875-17-875-17-875-17-875-20-875-20-875-20-875-20-875-|---------------------------------------------------------|---------------------------------------------------------|---------------------------------------------------------|---------------------------------------------------------|---------------------------------------------------------|
T T T T T T T T2----------------------------------------------------------------|----------------------------------------------------------------|----------------------------------------------------------------|----------------------------------------------------------------|----------------------------------------------------------------|3-3-3-3-3-3-3-3-3-3-3-3-3-3-3-3-5-5-5-5-5-5-5-5-5-5-5-5-5-5-5-5-|* * * * * * * * * * * * * * * * * * * * * * * * * * * * * * * *
1 ^ ^ ^ ^ ^ ^ ^ ^-19-875-19-875-19-875-19-875-15-875-15-875-15-875-15-875-|---------------------------------------------------------|---------------------------------------------------------|---------------------------------------------------------|---------------------------------------------------------|---------------------------------------------------------|
T T T T T T T T2-----------------------------------------------------------------|-----------------------------------------------------------------|-----------------------------------------------------------------|-----------------------------------------------------------------|-----------------------------------------------------------------|7-7-7-7-7-7-7-7-7-7-7-7-7-7-7-7-1010101010101010-1212121212121212|* * * * * * * * * * * * * * * * * * * * * * * * * * * * * * * *
2:16
1--------------------------------------------------|-------------------------------8~-----------------|------4------4~-------5~----------------5~--------|-3-------5~-----7~--------9~-------9~-------7~----|-3------------------------------------------------|-3------------------------------------------------|
OVERDUB------------------------------^-------------------|---------------------^------20-8-------^----------|-------------------17-5---^-------^--17-5---^-----|------------------------21-9----21-9------19-7----|--------------------------------------------------|--------------------------------------------------|
2--------------------------------------------------|--------------------------------------------------|--------------------------------------------------|--------------------------------------------------|-3-------5------7---------------------------------|-3-------5------7---------------------------------|
1--------------------------------------------------------|--------------------------------------------------------|------4------4~-----9--9--9-7--7-7-7-5--5-5-5-4-4-5-5---|-3-------5~-----7~-10-10-10-9--9-9-9-7--7-7-7-5-5-7-7---|-3------------------------------------------------------|-3------------------------------------------------------|
* * * * * * * * * *2--------------------------------------------------------|--------------------------------------------------------|--------------------9--9--9-7--7-7-7-5--5-5-5-4-4-5-5---|-------------------10-10-10-9--9-9-9-7--7-7-7-5-5-7-7---|-3-------5----------------------------------------------|-3-------5----------------------------------------------| * * * * * * * * * *
1--------------------------------------------------|-------------------------------8~-----------------|------4------4~-------5~----------------5~--------|-3-------5~-----7~--------9~-------9~-------7~----|-3------------------------------------------------|-3------------------------------------------------|
OVERDUB------------------------------^-------------------|---------------------^------20-8-------^----------|-------------------17-5---^-------^--17-5---^-----|------------------------21-9----21-9------19-7----|--------------------------------------------------|--------------------------------------------------|
2--------------------------------------------------|--------------------------------------------------|--------------------------------------------------|--------------------------------------------------|-3-------5------7---------------------------------|-3-------5------7---------------------------------|
1--------------------------------|--------------------------------|------4~-----4~-----------------|-3-------5~-----7~--------------|-3-------------------0-0---0-0--|-3-------------------0-0---0-0--|
* * * * 2--------------------------------|--------------------------------|--------------------------------|--------------------------------|-3-------5-----------0-0---0-0--|-3-------5-----------0-0---0-0--| * * * *
2:43
1 ^ ^ ^ ^ ^ ^ ^ ^-17-875-17-875-17-875-17-875-20-875-20-875-20-875-20-875-|---------------------------------------------------------|---------------------------------------------------------|---------------------------------------------------------|---------------------------------------------------------|---------------------------------------------------------|
T T T T T T T T2----------------------------------------------------------|----------------------------------------------------------|----------------------------------------------------------|-3--------------------------------------------------------|-3--------------------------------------------------------|-3--------------------------------------------------------|
1 ^ ^ ^ ^ ^ ^ ^ ^-19-875-19-875-19-875-19-875-15-875-15-875-15-875-15-875-|---------------------------------------------------------|---------------------------------------------------------|---------------------------------------------------------|---------------------------------------------------------|---------------------------------------------------------|
T T T T T T T T2---------------------------------------------------------|---------------------------------------------------------|---------------------------------------------------------|-(3)-----------------------------------------------------|-(3)-----------------------------------------------------|-(3)-----------------------------------------------------|
1 ^ ^ ^ ^ ^ ^ ^ ^-17-875-17-875-17-875-17-875-20-875-20-875-20-875-20-875-|---------------------------------------------------------|---------------------------------------------------------|---------------------------------------------------------|---------------------------------------------------------|---------------------------------------------------------|
T T T T T T T T2----------------------------------------------------------|----------------------------------------------------------|----------------------------------------------------------|-3---------------------------7----------------------------|-3---------------------------7----------------------------|-3---------------------------7----------------------------|
1 ^ ^ ^ ^ ^ ^ ^ ^-19-875-19-875-19-875-19-875-15-875-15-875-15-875-15-875-|---------------------------------------------------------|---------------------------------------------------------|---------------------------------------------------------|---------------------------------------------------------|---------------------------------------------------------|
T T T T T T T T2---------------------------------------------------------|---------------------------------------------------------|---------------------------------------------------------|-5----------------------------5--------------------------|-5----------------------------5--------------------------|-5----------------------------5--------------------------|
1 ^ ^ ^ ^ ^ ^ ^ ^-17-875-17-875-17-875-17-875-20-875-20-875-20-875-20-875-|---------------------------------------------------------|---------------------------------------------------------|---------------------------------------------------------|---------------------------------------------------------|---------------------------------------------------------|
T T T T T T T T2----------------------------------------------------------|----------------------------------------------------------|----------------------------------------------------------|-3--------------3-------------7--------------7------------|-3--------------3-------------7--------------7------------|-3--------------3-------------7--------------7------------|
1 ^ ^ ^ ^ ^ ^ ^ ^-19-875-19-875-19-875-19-875-15-875-15-875-15-875-15-875-|---------------------------------------------------------|---------------------------------------------------------|---------------------------------------------------------|---------------------------------------------------------|---------------------------------------------------------|
T T T T T T T T2---------------------------------------------------------|---------------------------------------------------------|---------------------------------------------------------|-5-------------5--------------5-------------5------------|-5-------------5--------------5-------------5------------|-5-------------5--------------5-------------5------------|
3:04
1 ^ ^ ^ ^ ^ ^ ^ ^1717-875-1717-875-1717-875-1717-875-2020-875-2020-875-2020-875-2020-875-|------------------------------------------------------------------------|------------------------------------------------------------------------|------------------------------------------------------------------------|------------------------------------------------------------------------|------------------------------------------------------------------------|
T T T T T T T T T T T T T T T T2-----------------------------------------------------------------|-----------------------------------------------------------------|-----------------------------------------------------------------|-----------------------------------------------------------------|-----------------------------------------------------------------|-3-3-3-3-3-3-3-3-3-3-3-3-3-3-3-3-7-7-7-7-7-7-7-7-7-7-7-7-7-7-7-7-| * * * * * * * * * * * * * * * * * * * * * * * * * * * * * * * *
1 ^ ^ ^ ^ ^ ^ ^ ^-1919-875-1919-875-1919-875-1919-875-1515-875-1515-875-1515-875-1515-875-|-------------------------------------------------------------------------|-------------------------------------------------------------------------|-------------------------------------------------------------------------|-------------------------------------------------------------------------|-------------------------------------------------------------------------|
T T T T T T T T T T T T T T T T2-----------------------------------------------------------------|-----------------------------------------------------------------|-----------------------------------------------------------------|-----------------------------------------------------------------|-----------------------------------------------------------------|-5-5-5-5-5-5-5-5-5-5-5-5-5-5-5-5-5-5-5-5-5-5-5-5-5-5-5-5-5-5-5-5-| * * * * * * * * * * * * * * * * * * * * * * * * * * * * * * * *
3:11
------------0-------5-5-5-0---------------------5--0---|------5-5-5-0-------5-5-5-0------5-5-5----5-----5--0---|------5-5-5-0-------5-5-5-0------5-5-5-4--5--4--5--0---|-3----5-5-5----------------------5-5-5-5--5--5---------|-3-------------5-------------7-------------------------|-3-------------5-------------7-------------------------|
------------0-------5-5-5-0------|------5-5-5-0-------5-5-5-0------|------5-5-5-0-------5-5-5-0------|-3----5-5-5----------------------|-3-------------5-----------------|-3-------------5-----------------|
-----------------------------------------------|-----------------------------------------------|--9--9--9-7--7-7-7-5--5-5-5-4-4-5-5------------|-10-10-10-9--9-9-9-7--7-7-7-5-5-7-7------------|-----------------------------------------------|-----------------------------------------------| * * * * * * * * * *
1--------------------------------------------------|-------------------------------8~-----------------|------4------4~-------5~----------------5~--------|-3-------5~-----7~--------9~-------9~-------7~----|-3------------------------------------------------|-3------------------------------------------------|
OVERDUB------------------------------^-------------------|---------------------^------20-8-------^----------|-------------------17-5---^-------^--17-5---^-----|------------------------21-9----21-9------19-7----|--------------------------------------------------|--------------------------------------------------|
2--------------------------------------------------|--------------------------------------------------|--------------------------------------------------|--------------------------------------------------|-3-------5------7---------------------------------|-3-------5------7---------------------------------|
1--------------------------------------------------------|--------------------------------------------------------|------4------4~-----9--9--9-7--7-7-7-5--5-5-5-4-4-5-5---|-3-------5~-----7~-10-10-10-9--9-9-9-7--7-7-7-5-5-7-7---|-3------------------------------------------------------|-3------------------------------------------------------|
* * * * * * * * *2--------------------------------------------------------|--------------------------------------------------------|--------------------9--9--9-7--7-7-7-5--5-5-5-4-4-5-5---|-------------------10-10-10-9--9-9-9-7--7-7-7-5-5-7-7---|-3-------5----------------------------------------------|-3-------5----------------------------------------------| * * * * * * * * *
1--------------------------------------------------|-------------------------------8~-----------------|------4------4~-------5~----------------5~--------|-3-------5~-----7~--------9~-------9~-------7~----|-3------------------------------------------------|-3------------------------------------------------|
OVERDUB------------------------------^-------------------|---------------------^------20-8-------^----------|-------------------17-5---^-------^--17-5---^-----|------------------------21-9----21-9------19-7----|--------------------------------------------------|--------------------------------------------------|
2--------------------------------------------------|--------------------------------------------------|--------------------------------------------------|--------------------------------------------------|-3-------5------7---------------------------------|-3-------5------7---------------------------------|
1--------------------------------------------------------|--------------------------------------------------------|------4------4~-----9--9--9-7--7-7-7-5--5-5-5-4-4-5-5---|-3-------5~-----7~-10-10-10-9--9-9-9-7--7-7-7-5-5-7-7---|-3------------------------------------------------------|-3------------------------------------------------------|
* * * * * * * * * *2--------------------------------------------------------|--------------------------------------------------------|--------------------9--9--9-7--7-7-7-5--5-5-5-4-4-5-5---|-------------------10-10-10-9--9-9-9-7--7-7-7-5-5-7-7---|-3-------5----------------------------------------------|-3-------5----------------------------------------------| * * * * * * * * * *
3:52
L----------------------------------------------------|------------------------------------8~--------------|-----4~----------4~----------5~------------5~-------|-3-------5~----------7~---------9~-----9~-----7~----|-3--------------------------------------------------|-3--------------------------------------------------|
R----------------------------------------------------|----------------------------------------------------|-----7~----------7~----------9~------12~-----9~-----|-3-------9~----------10~--------12~------12~----10~-|-3--------------------------------------------------|-3--------------------------------------------------|
RYTHM----------------------------------------------------|----------------------------------------------------|----------------------------------------------------|-3-----------5------------7-------------------------|-3-----------5------------7-------------------------|-3-----------5------------7-------------------------|
L------------------------------------|------------------------------------|----4~----------4~------------------|--------5~----------7~--------------|-------------------------0-0-----0-0|-------------------------0-0-----0-0|
R * * * * ------------------------------------|------------------------------------|----7~----------7~------------------|--------9~----------10~-------------|--------------------------0-0----0-0|--------------------------0-0----0-0|
RYTHM * * * *-------------------|-------------------|-------------------|-3-----------5-----|-3-----------5-----|-3-----------5-----|
Tap to rate this tab
 
# A B C D E F G H I J K L M N O P Q R S T U V W X Y Z