Parkway Drive – Leviathan I tab ver. 2


PARKWAY DRIVE

LEVIATHAN I

A#-F-A#-D#-G-C


TABBED BY andherembrace




---------------------------------------------------------------------|---------------------------^----^---------------------------^----^---|----------5-----------5---5-7-12-7---------5-----------5---5-7-14-7--|------5-----7-----5-----7--------------5-----7-----5-----7-----------|-5------8-----5-----8--------------5-----8-----5-----8---------------|---8------------8--------------------8-----------8-------------------| * * * * T * * * * T
0:06
---------------------------------------------------------------|---------------------------------------------------------------|---------------------10-9---7------------------------7-5-7-----|-0-0---0-0---0---0-0--X-X---X---0-0---0-0---0---0-0--X-X-X-----|-0-0---0-0---0---0-0--8-7---5---0-0---0-0---0---0-0--5-3-5-----|-0-0---0-0---0---0-0------0-----0-0---0-0---0---0-0------------| * * * * * * * * * * * * * * *
---------------------------------------------------------------------|---------------------------^----^---------------------------^----^---|----------5-----------5---5-7-12-7---------5-----------5---5-7-14-7--|------5-----7-----5-----7--------------5-----7-----5-----7-----------|-5------8-----5-----8--------------5-----8-----5-----8---------------|---8------------8--------------------8-----------8-------------------| * * * * * T * * * * * T
---------------------------------------------------------------|---------------------------------------------------------------|---------------------10-9---7------------------------7-5-7-----|-0-0---0-0---0---0-0--X-X---X---0-0---0-0---0---0-0--X-X-X-----|-0-0---0-0---0---0-0--8-7---5---0-0---0-0---0---0-0--5-3-5-----|-0-0---0-0---0---0-0------0-----0-0---0-0---0---0-0------------| * * * * * * * * * * * * * * *
---------------------------------------------------|---------------------------------------------------|---------5-----------5-----------5-----------5-----|-----5-----7-----5-----7-----5-----7-----5-----7---|-5-----8-----5-----8-----5-----8-----5-----8-------|---8-----------8-----------8-----------8-----------| * * * * * * * *
0:30
L---------------------------------------------------------------|---------------------------------------------------------------|---------------------------------------------------------------|---------------------------------------------------------------|-5-----------7-------------8---------------10------------------|-5-----------7-------------8---------------10------------------|
*| *| *| *|R-------------------------------------------------------__----|-------------------------------------__-------__------/ \---|---------_------------_------__-----/ \-----/ \---10-12-14-|---_----/ \----_-----/ \----/ \---8-10-12-10-12-14----------|--/ \--5-7-8--/ \---7-8-10-8-10-12---------------------------|-5-7-8-------7-8-10------------------------------------------|
B------------------------------------------------------------------------|------------------------------------------------------------------------|-------------------------------------------------------_------------_---|-------------------------------------------------_----/ \----_-----/ \--|------------------------------------------------/ \--5-7-8--/ \---7-8-10|0-0-0---0-0-0---0-0-0---0-0-0---0-0-0---0-0-0--5-7-8-------7-8-10-------|* * * * * * * * * * * * * * * * * *
-------------------------------|-------------------------------|-------------------------------|-------------------------------|-------------------------------|-0-0-0---0-0-0---0-0-0---0-0-0-| * * * * * * * * * * * *
-------------------------------------------------------__----|-------------------------------------__-------__------/ \---|---------_------------_------__-----/ \-----/ \---10-12-14-|---_----/ \----_-----/ \----/ \---8-10-12-10-12-14----------|--/ \--5-7-8--/ \---7-8-10-8-10-12---------------------------|-5-7-8-------7-8-10------------------------------------------|
------------------------------------------------------------------------|------------------------------------------------------------------------|-------------------------------------------------------_------------_---|-------------------------------------------------_----/ \----_-----/ \--|------------------------------------------------/ \--5-7-8--/ \---7-8-10|0-0-0---0-0-0---0-0-0---0-0-0---0-0-0---0-0-0--5-7-8-------7-8-10-------|* * * * * * * * * * * * * * * * * *
-------------------------------|-------------------------------|-------------------------------|-------------------------------|-------------------------------|-0-0-0---0-0-0---0-0-0---0-0-0-| * * * * * * * * * * * *
-------------------------------------------------------__----|-------------------------------------__-------__------/ \---|---------_------------_------__-----/ \-----/ \---10-12-14-|---_----/ \----_-----/ \----/ \---8-10-12-10-12-14----------|--/ \--5-7-8--/ \---7-8-10-8-10-12---------------------------|-5-7-8-------7-8-10------------------------------------------|
0:50
--------------------------------------------------------------|--------------------------------------------------------------|---------------------------------10-7---7-5---9-7--10-9-5-7---|----------------------------------X-X---X-X---X-X---X-X-X-X---|---12---10---8---10-7---8---10----8-5---5-3---7-5---8-7-3/5---|-0----0----0---0------0---0----0------0-----0-----0-----------| * * * * * * * * * *
--------------------------------------------------------------|--------------------------------------------------------------|---------------------------------10-7---7-5---9-7--10-9-5-7---|----------------------------------X-X---X-X---X-X---X-X-X-X---|---12---10---8---10-7---8---10----8-5---5-3---7-5---8-7-3/5---|-0----0----0---0------0---0----0------0-----0-----0-----------| * * * * * * * * * *
--------------------------------------------------------------|--------------------------------------------------------------|---------------------------------10-7---7-5---9-7--10-9-5-7---|----------------------------------X-X---X-X---X-X---X-X-X-X---|---12---10---8---10-7---8---10----8-5---5-3---7-5---8-7-3/5---|-0----0----0---0------0---0----0------0-----0-----0-----------| * * * * * * * * * *
---------------------------------------------------------|---------------------------------------------------------|---------------------------------10-7---7-5---9-7--10-9--|----------------------------------X-X---X-X---X-X---X-X--|---12---10---8---10-7---8---10----8-5---5-3---7-5---8-7--|-0----0----0---0------0---0----0------0-----0-----0------| * * * * * * * * * *
1:09
L------------------------------------------------------------|------------------------------------------------------------|10-9---7-----------------------7-5-7------------------------|-X-X---X-----------------------X-X-X------------------------|-8-7---5--0-0---0-0---0---0-0--5-3-5--0-0---0-0---0---0-0---|-----0----0-0---0-0---0---0-0---------0-0---0-0---0---0-0---|
* * * * * * * * * * * * * * * R------------------------------------------------------------|------------------------------------------------------------|-------7-----------------------7-5-7------------------------|-------X-----------------------X-X-X------------------------|-------5--0-0---0-0---0---0-0--5-3-5--0-0---0-0---0---0-0---|----------0-0---0-0---0---0-0---------0-0---0-0---0---0-0---| * * * * * * * * * * * * * *
B------------------------------------------------------------|------------------------------------------------------------|10-9---7-----------------------7-5-7------------------------|-X-X---X-----------------------X-X-X------------------------|-8-7---5--0-0---0-0---0---0-0--5-3-5--0-0---0-0---0---0-0---|-----0----0-0---0-0---0---0-0---------0-0---0-0---0---0-0---| * * * * * * * * * * * * * * *
1:22
L------------------------------------------------------------|------------------------------------------------------------|10-9---7-----------------------7-5-7------------------------|-X-X---X-----------------------X-X-X------------------------|-8-7---5--0-0---00000--0-0-0---5-3-5--0-0---0-0-0---00000---|-----0----0-0---00000--0-0-0----------0-0---0-0-0---00000---|
* * * ***** * * * * * * * * ***** R------------------------------------------------------------|------------------------------------------------------------|1412--10----------------------10-9-10-----------------------|-X-X---X-----------------------X-X-X------------------------|1210---8--0-0---00000--0-0-0---8-7-8--0-0---0-0-0---00000---|-----0----0-0---00000--0-0-0----------0-0---0-0-0---00000---| * * * ***** * * * * * * * * *****
L---------------------------------------------------|---------------------------------------------------|10-9---7-----------------------7-5-7---------------|-X-X---X-----------------------X-X-X---------------|-8-7---5--0-0---00000--0-0-0---5-3-5--0-0---0-0-0--|-----0----0-0---00000--0-0-0----------0-0---0-0-0--|
* * * ***** * * * * * * * * R---------------------------------------------------|---------------------------------------------------|1412--10----------------------10-9-10--------------|-X-X---X-----------------------X-X-X---------------|1210---8--0-0---00000--0-0-0---8-7-8--0-0---0-0-0--|-----0----0-0---00000--0-0-0----------0-0---0-0-0--| * * * ***** * * * * * * * *
1:34
L---------------------------------------------------------------|---------------------------------------------------------------|---------------------------------------------------------------|---------------------------------------------------------------|-5-----------7-------------8---------------10------------------|-5-----------7-------------8---------------10------------------|
*| *| *| *|R-------------------------------------------------------__----|-------------------------------------__-------__------/ \---|---------_------------_------__-----/ \-----/ \---10-12-14-|---_----/ \----_-----/ \----/ \---8-10-12-10-12-14----------|--/ \--5-7-8--/ \---7-8-10-8-10-12---------------------------|-5-7-8-------7-8-10------------------------------------------|
B--------------------------------------------------------------|--------------------------------------------------------------|---------------------------------10-7---7-5---9-7--10-9-5-7---|----------------------------------X-X---X-X---X-X---X-X-X-X---|---12---10---8---10-7---8---10----8-5---5-3---7-5---8-7-3/5---|-0----0----0---0------0---0----0------0-----0-----0-----------| * * * * * * * * * *
--------------------------------------------------------------|--------------------------------------------------------------|---------------------------------10-7---7-5---9-7--10-9-5-7---|----------------------------------X-X---X-X---X-X---X-X-X-X---|---12---10---8---10-7---8---10----8-5---5-3---7-5---8-7-3/5---|-0----0----0---0------0---0----0------0-----0-----0-----------| * * * * * * * * * *
1:45
L--------------------------------------------------------------|--------------------------------------------------------------|---------------------------------10-7---7-5---9-7--10-9-5-7---|----------------------------------X-X---X-X---X-X---X-X-X-X---|---12---10---8---10-7---8---10----8-5---5-3---7-5---8-7-3/5---|-0----0----0---0------0---0----0------0-----0-----0-----------|
* * * * * * * * * *R---------------------------------------------------------------|---------------------------------------------------------------|--------------------------------------10-9---1210---14-12-910--|---------------------------------------X-X----X-X----X--X-X-X--|---------------------------------------8-7---10-8---12-10-7/8--|-0-000--------------------00000------------0------0------------| * *** ***** * *
L--------------------------------------------------------------|--------------------------------------------------------------|---------------------------------10-7---7-5---9-7--10-9-5-7---|----------------------------------X-X---X-X---X-X---X-X-X-X---|---12---10---8---10-7---8---10----8-5---5-3---7-5---8-7-3/5---|-0----0----0---0------0---0----0------0-----0-----0-----------|
* * * * * * * * * *R---------------------------------------------------------------|---------------------------------------------------------------|--------------------------------------10-9---1210---14-12-910--|---------------------------------------X-X----X-X----X--X-X-X--|---------------------------------------8-7---10-8---12-10-7/8--|-0-000--------------------00000------------0------0------------| * *** ***** * *
1:54
L--------------------------------------------------------------|--------------------------------------------------------------|---------------------------------10-7---7-5---9-7--10-9-5-7---|----------------------------------X-X---X-X---X-X---X-X-X-X---|---12---10---8---10-7---8---10----8-5---5-3---7-5---8-7-3/5---|-0----0----0---0------0---0----0------0-----0-----0-----------|
* * * * * * * * * *R---------------------------------------------------------------|---------------------------------------------------------------|----------------------------------7-5--10-9---1210---14-12-910-|----------------------------------X-X---X-X----X-X----X--X-X-X-|---8----7----5---7-3----5---7-----5-3---8-7---10-8---12-10-7/8-|-0----0----0---0------0---0----0------0-----0------0-----------| * * * * * * * * * *
L--------------------------------------------------------------|--------------------------------------------------------------|---------------------------------10-7---7-5---9-7--10-9-5-7---|----------------------------------X-X---X-X---X-X---X-X-X-X---|---12---10---8---10-7---8---10----8-5---5-3---7-5---8-7-3/5---|-0----0----0---0------0---0----0------0-----0-----0-----------|
* * * * * * * * * *R---------------------------------------------------------------|---------------------------------------------------------------|----------------------------------7-5--10-9---1210---14-12-910-|----------------------------------X-X---X-X----X-X----X--X-X-X-|---8----7----5---7-3----5---7-----5-3---8-7---10-8---12-10-7/8-|-0----0----0---0------0---0----0------0-----0------0-----------| * * * * * * * * * *
2:03
---------------------------------------------------------------------|---------------------------^----^---------------------------^----^---|----------5-----------5---5-7-12-7---------5-----------5---5-7-14-7--|------5-----7-----5-----7--------------5-----7-----5-----7-----------|-5------8-----5-----8--------------5-----8-----5-----8---------------|---8------------8--------------------8-----------8-------------------| * * * * * T * * * * * T
---------------------------------------------------------------------|---------------------------^----^---------------------------^----^---|----------5-----------5---5-7-12-7---------5-----------5---5-7-14-7--|------5-----7-----5-----7--------------5-----7-----5-----7-----------|-5------8-----5-----8--------------5-----8-----5-----8---------------|---8------------8--------------------8-----------8-------------------| * * * * * T * * * * * T
2:16
-----------------------------------------------------|-----------------------------------------------------|-----------------------------------------------------|-0-0---0-0---0-------------0-0---0-0---0-------------|-0-0---0-0---0-------------0-0---0-0---0-------------|-0-0---0-0---0-------------0-0---0-0---0-------------| * * * * * * * * * *
--------------------------------------------|--------------------------------------------|--------------------------------------------|-0-0---0-0---0-------------0-0---0-0---0----|-0-0---0-0---0-------------0-0---0-0---0----|-0-0---0-0---0-------------0-0---0-0---0----| * * * * * * * * * * |
2;30
R------------------------------------------------------------|------------------------------------------------------------|10-9---7-----------------------7-5-7------------------------|-X-X---X-----------------------X-X-X------------------------|-8-7---5--0-0---0-0---0---0-0--5-3-5--0-0---0-0---0---0-0---|-----0----0-0---0-0---0---0-0---------0-0---0-0---0---0-0---|
* * * * * * * * * * * * * * * L------------------------------------------------------------|------------------------------------------------------------|-------7-----------------------7-5-7------------------------|-------X-----------------------X-X-X------------------------|-------5--0-0---0-0---0---0-0--5-3-5--0-0---0-0---0---0-0---|----------0-0---0-0---0---0-0---------0-0---0-0---0---0-0---| * * * * * * * * * * * * * *
B------------------------------------------------------------|------------------------------------------------------------|10-9---7-----------------------7-5-7------------------------|-X-X---X-----------------------X-X-X------------------------|-8-7---5--0-0---0-0---0---0-0--5-3-5--0-0---0-0---0---0-0---|-----0----0-0---0-0---0---0-0---------0-0---0-0---0---0-0---| * * * * * * * * * * * * * * *
L------------------------------------------------------------|------------------------------------------------------------|10-9---7-----------------------7-5-7------------------------|-X-X---X-----------------------X-X-X------------------------|-8-7---5--0-0---00000--0-0-0---5-3-5--0-0---0-0-0---00000---|-----0----0-0---00000--0-0-0----------0-0---0-0-0---00000---|
* * * ***** * * * * * * * * ***** R------------------------------------------------------------|------------------------------------------------------------|1412--10----------------------10-9-10-----------------------|-X-X---X-----------------------X-X-X------------------------|1210---8--0-0---00000--0-0-0---8-7-8--0-0---0-0-0---00000---|-----0----0-0---00000--0-0-0----------0-0---0-0-0---00000---| * * * ***** * * * * * * * * *****
L---------------------------------------------------|---------------------------------------------------|10-9---7-----------------------7-5-7---------------|-X-X---X-----------------------X-X-X---------------|-8-7---5--0-0---00000--0-0-0---5-3-5---------------|-----0----0-0---00000--0-0-0-----------------------|
* * * ***** * * * R---------------------------------------------------|---------------------------------------------------|1412--10----------------------10-9-10--------------|-X-X---X-----------------------X-X-X---------------|1210---8--0-0---00000--0-0-0---8-7-8---------------|-----0----0-0---00000--0-0-0-----------------------| * * * ***** * * *
2:57
L------------------------------------------------------------|------------------------------------------------------------|-5----3------7---------5----3-------7-----------5----3------|-X----X------X---------X----X-------X-----------X----X------|-3----1------5---------3----1-------5-----------3----1------|------------------------------------------------------------|
R----------------------------------------8-------------------|----------------------------------------X-------------------|-9----7-----10---------9----7------10--101010---9--9--7--7--|-X----X------X---------X----X-------X---X-X-X---X--X--X--X--|-7----5------8---------7----5-------8--(8-8-8)--7--7--5--5--|------------------------------------------------------------|
L-------------------------------------------------------------------|-------------------------------------------------------------------|-7---------5----3--------------------------------------------------|-X---------X----X--------------------------------------------------|-5---------3----1--------------------------------------------------|-------------------000-0-000-0-000-0-000-0-000-0-000-0-000-0-000-0-| *** * *** * *** * *** * *** * *** * *** * *** *
-------------------------------------------------------------------|-------------------------------------------------------------------|10--------9----7---------------------------------------------------|-X--------X----X---------------------------------------------------|-8--------7----5---0-----------------------------------------------|-------------------0-----------------------------------------------|
3:17
B L---------------------------------------------------------------|---------------------------------------------------------------|---------------------------------------------------------------|---------------------------------------------------------------|---------------------------------------------------------------|-000-0-000-0-000-0-000-0-000-0-000-0-000-0-000-0-000-0-000-0---| *** * *** * *** * *** * *** * *** * *** * *** * *** * *** *
---------------------------------------------------------------|---------------------------------------------------------------|---------------------------------------------------------------|---------------------------------------------------------------|---------------------------------------------------------------|-000-0-000-0-000---0-0-0---0-0---000-0-000-0-000---0-0-0---0-0-| *** * *** * *** * * * * * *** * *** * *** * * * * *
---------------------------------------------------------------|---------------------------------------------------------------|---------------------------------------------------------------|---------------------------------------------------------------|---------------------------------------------------------------|-000-0-000-0-000---0-0-0---0-0---000-0-000-0-000---0-0-0---0-0-| *** * *** * *** * * * * * *** * *** * *** * * * * *
-----------------------------------------------------------------|-----------------------------------------------------------------|-----------------------------------------------------------------|-----------------------------------------------------------------|-----------------------------------------------------------------|-000-0-000-0-000-0-000-0-000-000-333-3-555-5-111-1-333-3-111-333-| *** * *** * *** * *** * *** *** *** * *** * *** * *** * *** ***
L---------------------------------------------------------------------|---------------------------------------------------------------------|---------------------------------------------------------------------|-----------------------------------------------------------------0---|-----------------------------------------------------------------0---|-000-0-000-0-000-0-000-0-000-000-333-3-555-5-111-1-333-3-111-333-0---|
*** * *** * *** * *** * *** *** *** * *** * *** * *** * *** *** |R---------------------------------------------------------------------|---------------------------------------------------------------------|---------------------------------------------------------------------|-----------------------------------------------------------------0---|-----------------------------------------------------------------0---|-000-0-000-0-000-0-000-0-000-000-777-7-888-8-555-5-777-7-555-555-0---| *** * *** * *** * *** * *** *** *** * *** * *** * *** * *** *** |
Please rate this tab:
x1.0