Parokya Ni Edgar - Gitara tab

Intro:

e|------| |------| |------| |-3-2--0--2-|B|-3----| |-3----| |-3----| |------3--3-|G|-2--0-| 3x |-2--0-| 3x |-2--0-| 3x |------2--2-|D|------| |------| |------| |-0-0--0----|A|------| |-2----| |-3----| |------0----|E|-3----| |------| |------| |------0----|
e|--------------------------5/7-5-7-8-///15~------------------------| B|------------------8/10-8------------------------------------------| G|----5/7-/-9-9/11--------------------------------------------------| D|--------------------------------------------9h12-7h9p7------------| A|------------------------------------------------------------------| E|------------------------------------------------------------------|
e|-------------------------------5/7-5-7-8-/12-10-7-7h8-5-----------| B|------------------8/10-8-10-8---------------------------8~--------| G|----5/7-/-9-9/11--------------------------------------------------| 2x all D|------------------------------------------------------------------| A|------------------------------------------------------------------| E|------------------------------------------------------------------|
e|------| |------| |------| |-3-2--0--2-|B|-3----| |-3----| |-3----| |------3--3-|G|-2--0-| 3x |-2--0-| 3x |-2--0-| 3x |------2--2-|D|------| |------| |------| |-0-0--0----|A|------| |-2----| |-3----| |------0----|E|-3----| |------| |------| |------0----|
e|------| |------| |------| |-3-2--0--2-|B|-3----| |-3----| |-3----| |------3--3-|G|-2--0-| 3x |-2--0-| 3x |-2--0-| 3x |------2--2-|D|------| |------| |------| |-0-0--0----|A|------| |-2----| |-3----| |------0----|E|-3----| |------| |------| |------0----|
Verse: 1
e|------| |------| |------| |-3-2--0--2-|B|-3----| |-3----| |-3----| |------3--3-|G|-2--0-| 3x |-2--0-| 3x |-2--0-| 3x |------2--2-|D|------| |------| |------| |-0-0--0----|A|------| |-2----| |-3----| |------0----|E|-3----| |------| |------| |------0----|
Bakit pa kailangan mag bihis? Kung sayang din naman ang porma...
e|------| |------| |------| |-3-2--0--2-|B|-3----| |-3----| |-3----| |------3--3-|G|-2--0-| 3x |-2--0-| 3x |-2--0-| 3x |------2--2-|D|------| |------| |------| |-0-0--0----|A|------| |-2----| |-3----| |------0----|E|-3----| |------| |------| |------0----|
lagi lang namang may sisingit, sa tuwing tayo'y magkasama...
e|------| |------| |------| |-3-2--0--2-|B|-3----| |-3----| |-3----| |------3--3-|G|-2--0-| 3x |-2--0-| 3x |-2--0-| 3x |------2--2-|D|------| |------| |------| |-0-0--0----|A|------| |-2----| |-3----| |------0----|E|-3----| |------| |------| |------0----|
Bakit pa kailangan ng rosas?? Kung marami namang mag-aalay sayo...
e|------| |------| |------| |-3-2--0--2-|B|-3----| |-3----| |-3----| |------3--3-|G|-2--0-| 3x |-2--0-| 3x |-2--0-| 3x |------2--2-|D|------| |------| |------| |-0-0--0----|A|------| |-2----| |-3----| |------0----|E|-3----| |------| |------| |------0----|
Uupo na lang at aawit, Maghihintay ng pagkakataon Pre-Chorus:
|-0-0-0---2-2-2-2h3p2--2-2p0-----3-----2-----0----||-1-1--0--3-3-3-3------3-3-------3-----3------0---||-2-2-----2-2-2-2------2-2p0-----0-----2----1--1--| 2x|-2-2--------------------------------0-----2------||-0-0--------------------------2----0-----2-------||-0-0-------------------------3-------------------|
Hahayaan na lang sila na nagkandarapa na manligaw sayo, idadaan na lang kita sa awitin kong ito.
|-0-0-0---2-2-2-2h3p2--2-2p0-----3-----2-----0----||-1-1--0--3-3-3-3------3-3-------3-----3--0---0---||-2-2-----2-2-2-2------2-2p0-----0-----2----1--1--||-2-2----------------------------------------2----||-0-0--------------------------2----0-----2-------||-0-0-------------------------3-------------------|
Sabay na pagtugtog nggggggg Gitara.....
|-1-1--0--3-3-3-3------3-3----||-2-2-----2-2-2-2------2-2p0--||-2-2-------------------------||-0-0-------------------------||-0-0-------------------------|
Idadaan na lang...... sa Gitara Interclude:
e|--------------------------5/7-5-7-8-///15~------------------------| B|------------------8/10-8------------------------------------------| G|----5/7-/-9-9/11--------------------------------------------------| D|--------------------------------------------9h12-7h9p7------------| A|------------------------------------------------------------------| E|------------------------------------------------------------------|
e|-------------------------------5/7-5-7-8-/12-10-7-7h8-5-----------| B|------------------8/10-8-10-8---------------------------8~--------| G|----5/7-/-9-9/11--------------------------------------------------| 2x all D|------------------------------------------------------------------| A|------------------------------------------------------------------| E|------------------------------------------------------------------|
e|------| |------| |------| |-3-2--0--2-|B|-3----| |-3----| |-3----| |------3--3-|G|-2--0-| 3x |-2--0-| 3x |-2--0-| 3x |------2--2-|D|------| |------| |------| |-0-0--0----|A|------| |-2----| |-3----| |------0----|E|-3----| |------| |------| |------0----|
e|------| |------| |------| |-3-2--0--2-|B|-3----| |-3----| |-3----| |------3--3-|G|-2--0-| 3x |-2--0-| 3x |-2--0-| 3x |------2--2-|D|------| |------| |------| |-0-0--0----|A|------| |-2----| |-3----| |------0----|E|-3----| |------| |------| |------0----|
Verse: 2
e|------| |------| |------| |-3-2--0--2-|B|-3----| |-3----| |-3----| |------3--3-|G|-2--0-| 3x |-2--0-| 3x |-2--0-| 3x |------2--2-|D|------| |------| |------| |-0-0--0----|A|------| |-2----| |-3----| |------0----|E|-3----| |------| |------| |------0----|
Mapapagod lang sa katitingin kung marami namang nakaharang....
e|------| |------| |------| |-3-2--0--2-|B|-3----| |-3----| |-3----| |------3--3-|G|-2--0-| 3x |-2--0-| 3x |-2--0-| 3x |------2--2-|D|------| |------| |------| |-0-0--0----|A|------| |-2----| |-3----| |------0----|E|-3----| |------| |------| |------0----|
Aawit na lang at magpaparinig ng lahat ng aking nadarama... Pre-Chorus: 2
|-0-0-0---2-2-2-2h3p2--2-2p0-----3-----2-----0----||-1-1--0--3-3-3-3------3-3-------3-----3------0---||-2-2-----2-2-2-2------2-2p0-----0-----2----1--1--| 2x|-2-2--------------------------------0-----2------||-0-0--------------------------2----0-----2-------||-0-0-------------------------3-------------------|
Pagbibigyan na lang sila na magkandarapa na manligaw sayo, idadaan na lang kita sa awitin kong ito....
|-0-0-0---2-2-2-2h3p2--2-2p0-----3-----2-----0----||-1-1--0--3-3-3-3------3-3-------3-----3--0---0---||-2-2-----2-2-2-2------2-2p0-----0-----2----1--1--||-2-2----------------------------------------2----||-0-0--------------------------2----0-----2-------||-0-0-------------------------3-------------------|
Sabay na pagtugtog nggggggg Gitara.....
|-1-1--0--3-3-3-3------3-3----||-2-2-----2-2-2-2------2-2p0--||-2-2-------------------------||-0-0-------------------------||-0-0-------------------------|
Idadaan na lang...... sa Gitara Adlib:
|-------------------------------12--10---------------------------||--------7-8-7--------7-8/10/12--------12-12/13--12-10--10h12p10-||-7--7h9-------7--7h9--------------------------------------------||----------------------------------------------------------------||----------------------------------------------------------------||----------------------------------------------------------------|
|10--10--7-8-10--10/12--10--7--7h8-7-----------------7h8--10--7-10/12--||-------------------------------------8/10-8\7--8/10-------------------||----------------------------------------------------------------------||----------------------------------------------------------------------||----------------------------------------------------------------------||----------------------------------------------------------------------|
Pre-Chorus: 3
|-0-0-0---2-2-2-2h3p2--2-2p0-----3-----2-----0----||-1-1--0--3-3-3-3------3-3-------3-----3------0---||-2-2-----2-2-2-2------2-2p0-----0-----2----1--1--| 2x|-2-2--------------------------------0-----2------||-0-0--------------------------2----0-----2-------||-0-0-------------------------3-------------------|
Pagbibigyan na lang sila na magkandarapa na manligaw sayo, idadaan na lang kita sa awitin kong ito....
|-0-0-0---2-2-2-2h3p2--2-2p0-----3-----2-------0-||-1-1--0--3-3-3-3------3-3-------3-----3-----0---||-2-2-----2-2-2-2------2-2p0-----0-----2----1-1--||-2-2--------------------------------------2-----||-0-0--------------------------2----0-----2------||-0-0-------------------------3------------------|
Sabay na pagtugtog nggggggg Gitara ohhhooohhhhhh.
|--------0------2-2h3p2-||----1----1----3--------||---2-2-------2---------||--2---2-----0----------||-0---------0-----------||-----------------------|
Idadaan na lang........ Outro:
e|--7~-----7----|-5------5----|b|-----0-----0~-|----0-----0~-|g|--------------|-------------|d|--5~---5-5~---|-4~---4-5~---|a|--------------|-------------|e|--------------|-------------|
e|--4~--2h4-5p4-2h4-2~--------|b|----------------------------|g|----------------------------|d|--2~------------------------|a|----------------------------|e|----------------------------|
e|-----------5h7-7h8p7-5h7p5~5-----|b|---------5~------------------5~--|g|-------5~----------------------5~|d|-----7~--------------------------|a|--0~-----------------------------|e|---------------------------------|
e|----------2h3p2-3p2-5p3-2-0h2p0-----------------------------------------|b|--------3-----------------------3p0-3p0---------------------------------|g|----------------------------------------4p2-0-4p2-0---------------------|d|--0-0-----------------------------------------------5p4-2h4p2-----------|a|--------------------------------------------------------------5-4-2-----|e|--------------------------------------------------------------------0~--|
e|-------12~---------|b|-----12~-----------|g|---12~-------------|d|-------------------|a|-------------------|e|-------------------|
Sa Gitaraaaaaaaaaaaaaaa.........
e|--------------------------5/7-5-7-8-///15~------------------------| B|------------------8/10-8------------------------------------------| G|----5/7-/-9-9/11--------------------------------------------------| D|--------------------------------------------9h12-7h9p7------------| A|------------------------------------------------------------------| E|------------------------------------------------------------------|
e|-------------------------------5/7-5-7-8-/12-10-7-7h8-5-----------| B|------------------8/10-8-10-8---------------------------8~--------| G|----5/7-/-9-9/11--------------------------------------------------| D|------------------------------------------------------------------| A|------------------------------------------------------------------| E|------------------------------------------------------------------|
Tap to rate this tab
 
# A B C D E F G H I J K L M N O P Q R S T U V W X Y Z