Parokya Ni Edgar - Ordertaker tab

Title: Order Taker
Artist: Parokya ni edgar
tabbed by:Paul Anthonie Antoc
Age:15 yrs old

     Hi to my fwends dyan,, cla jong,otep,calvin,and all lot more maraming salamat 
Rock on ^^


============================================================================

============================================================================

Drop D tuning

Bahala na kayo sa lahat basta tama yan...

Intro

|-----------------------------------------------||-----------------------------------------------||-----------------------------------------------||-------7------7-----7-----7-----5-----5--------||----5-----5------5-----5-----5-----7-----------||-----------------------------------------------|
|-----------------------------------------------||-----------------------------------------------||-----------------------------------------------||-------10-----10-----10-----10-----10-----10---||---/8------8------8------8------8------8-------||-----------------------------------------------|
|-----------------------------------------------||-----------------------------------------------||-----------------------------------------------||-------7-----5-----5-----5-----7-----7---------||----5-----5-----7-----8-----8-----5------------||-----------------------------------------------|
|-----------------------------------------------||-----------------------------------------------||-----------------------------------------------||----------10-----12-----12--10-----10--8-----8-||---(5)/8------8------8----------8---------8----||-----------------------------------------------|
|-----------------------------------------------||-----------------------------------------------||*---------------------------------------------*||*-----------------------8---8-----7-----7-7-7-*||---0------------0-------8---8-----7-----7-7-7--||---0----3-2-0-2-0-------8---8-----7-----7-7-7--| x2
|-------------------------------------------------||-------------------------------------------------||-------------------------------------------------||-------------------------------------------------||-------------------------------------------------||-3-2-0-2-0-0-3-2-0-2-0-0-3-2-0-2-0-0-3-2-0-2-0-0-|
|-----------------------------------------------||-----------------------------------------------||-----------------------------------------------||---8---8-8-8---7---7-7-7-----------------------||---8---8-8-8---7---7-7-7-----------------------||---8---8-8-8---7---7-7-7-----------------------|
Verse
|-----------------------------------------------||-----------------------------------------------||-----------------------------------------------||-----------------------------------------------||------0-----0-----0-----0-----0-----0----------||---0-----0-----0-----0-----0-----0-------------|
|-----------------------------------------------||-----------------------------------------------||-----------------------------------------------||-----------------------------------------------||------3-----3-----3-----3-----3-----3----------||---3-----3-----3-----3-----3-----3-------------|
|-----------------------------------------------||-----------------------------------------------||-----------------------------------------------||-----------------------------------------------||------0-----0-----0--1-----1-0-----0-----------||---0-----0-----0--------0-------0--------------|
|-----------------------------------------------||-----------------------------------------------||-----------------------------------------------||-----------------------------------------------||-------3-----3-----3-----3-----3-----3---------||---/3-----3-----3-----3-----3-----3------------|
|-----------------------------------------------||-----------------------------------------------||-------14------14------14----------------------||---12------12------12--------------------------||-----------------------------------------------||-----------------------------------------------|
|-----------------------------------------------||-----------------------------------------------||--------14------14------14---------------------||----12------12------12-------------------------||-----------------------------------------------||-----------------------------------------------|
|-----------------------------------------------||-------------------17--------------------------||-----------17----------17----------------------||--(12)/15------15----------15------------------||-----------------------------------------------||-----------------------------------------------|
|-----------------------------------------------||----18----------17-----------------------------||--------17----------17-------------------------||------------15----------15---------------------||-----------------------------------------------||-----------------------------------------------|
|-----------------------------------------------||-----------------------------------------------||-------14------14------14----------------------||---12------12------12--------------------------||-----------------------------------------------||-----------------------------------------------|
|-----------------------------------------------||-----------------------------------------------||-----------------------------------------------||---15------15--14------14----------------------||-------12----------12--------------------------||-----------------------------------------------|
|---------------------------------------------------||---------------------------------------------------||--------17------19------19--17------17--15------15-||---/15------15------15----------15----------15-----||---------------------------------------------------||---------------------------------------------------|
|-----------------------------------------------||-----------------------------------------------||-----------------------------------------------||-----------------------------------------------||-----------------------------------------------||----0---0-0---0---0-0-0---0---0-0---0---0-0-0--|
|-----------------------------------------------||-----------------------------------------------||-----------------------------------------------||-----------------------------------------------||-----------------------------------------------||----3---3-3---3---3-3-3---3---3-3---3---3-3-3--|
|-----------------------------------------------||-----------------------------------------------||-----------------------------------------------||-----------------------------------------------||-----------------------------------------------||----0---0-0---0---0-0-0---0---0-0---0---0-0-0--|
|-----------------------------------------------||-----------------------------------------------||-----------------------------------------------||-----------------------------------------------||-----------------------------------------------||----3---3-3---3---3-3-3---3---3-3---3---3-3-3--|
Chorus
|-----------------------------------------------||-----------------------------------------------||*---------------------------------------------*||*------------------8--8-8-8---7--7-7--7-7-7---*||---0-----------0---8--8-8-8---7--7-7--7-7-7----||---0---3-2-0-2-0---8--8-8-8---7--7-7--7-7-7----|
|---------------------------------------------------||---------------------------------------------------||---------------------------------------------------||---------------------------------------------------||---------------------------------------------------||-3-2-0-2-0-0-3-2-0-2-0-0-3-2-0-2-0-0-3-2-0-2-0-0---|
|-----------------------------------------------||-----------------------------------------------||-----------------------------------------------||--8--8-8-8----7--7--7-7-7----------------------||--8--8-8-8----7--7--7-7-7----------------------||--8--8-8-8----7--7--7-7-7----------------------|
|-----------------------------------------------||-----------------------------------------------||----------------------------------------------*||------------------8--8-8-8--7--7--7-7-7-------*| <--(back to|---0--------------8--8-8-8--7--7--7-7-7--------| verse)|---0---3-2-0-2-0--8--8-8-8--7--7--7-7-7--------|
Interlude|-----------------------------------------------||-----------------------------------------------||-----------------------------------------------||-----------------------------------------------||-----------------------------------------------||---12---12-12--12-12-12--15-12-12--14b---------|
|-----------------------------------------------||-----------------------------------------------||-----------------------------------------------||-----------------------------------------------||-----------------------------------------------||---12---12-12--12-12-12--15-12-12--14~---------|
|-----------------------------------------------||-----------------------------------------------||-----------------------------------------------||-----------------------------------------------||-----------------------------------------------||---12---12-12--12-12-12--15-12-12--14b---------|
|-----------------------------------------------||-----------------------------------------------||-----------------------------------------------||-----------------------------------------------||-----------------------------------------------||---12---12-12--12-12-12--15-12-12--14/---------|
|-----------------------------------------------||-----------------------------------------------||*---------------------------------------------*||*---------------------------------------------*||-----------------------------------------------||---3-2-0-0-0-0-3-2-0-0-0-0---------------------| x4
|-----------------------------------------------||-----------------------------------------------||-----------------------------------------------||-----------------------------------------------||-----------------------------------------------||----0--0--0-0-0--3-2-0---2b--------------------| x4
|-----------------------------------------------||-----------------------------------------------||-----------------------------------------------||-----------------------------------------------||-----------------------------------------------||---3-2-0-0-0-0-3-2-0-0-0-0---------------------| x4
Outro|-----------------------------------------------||-----------------------------------------------||-----------------------------------------------||-----------------------------------------------||-----------------------------------------------||---3-2-0-0-0-0-3-2-0-0-0-0---------------------| x4
|-----------------------------------------------||-----------------------------------------------||-----------------------------------------------||-----------------------------------------------||-----------------------------------------------||---0----0--0----3-2-0--2b----------------------|
|-----------------------------------------------||-----------------------------------------------||-----------------------------------------------||-----------------------------------------------||-----------------------------------------------||---0--0---0-0-0--3-2-0----2b-------------------|
|-----------------------------------------------||-----------------------------------------------||-----------------------------------------------||-----------------------------------------------||-----------------------------------------------||---0----0--0----3-2-0--2b----------------------|
|-----------------------------------------------||-----------------------------------------------||-----------------------------------------------||-----------------------------------------------||-----------------------------------------------||---0-0---0-0-0--3-2-0--2-----------------------|
Tap to rate this tab
 
# A B C D E F G H I J K L M N O P Q R S T U V W X Y Z