Parokya Ni Edgar - Para Sayo tab

para sayo-parokya ni edgar





intro:[chords used-E-B-C#m-B-A-E-C#m-B]|-----------------------------------------||-----------------------------------------||--9-11-9---------6-8-6-------------------||--9-11-9--9-7-6--6-8-6--9-7-6------------||--7-9--7--9-7-6--4-6-4--9-7-6------------||----------7-5-4---------7-5-4------------|
|-----------------------------------------||-----------------------------------------||--------9-8-6--6-x-----------------------||-7-9-7--9-8-6--6-x--9-7-6----------------||-7-9-7--7-6-4--4-x--9-7-6----------------||-5-7-5--------------7-5-4----------------|
2x yan! sa 2nd part kau na bhalang manghula sa palm mute.. verse1: gwin nyo nlng ung powerchords nung chords nun..lagyan nyo ng palm mute.. gani2 ung akin:
|-------------------------------------||-------------------------------------||--9-x-----6-x------------------------||--9-x-9-x-6-x-9-7-9------------------||--7-x-9-x-4-x-9-7-9------------------||------7-x-----7-5-7------------------|
chorus: unang part(basic chords): E-B-C#m-B-A-E-C#m-B
2nd part:|---------------------------------------||---------------------------------------||--9-x-----6-x---------9-x-6------------||--9-x-9-x-6-x-9-x-7-x-9-x-6-9----------||--7-x-9-x-4-x-9-x-7-x-7-x-4-9----------||------7-x-----7-x-5-x-------7----------|
interlude:|-------------------------------------||-------------------------------------||-9-----6-----------------------------||-9--9--6--9--------------------------||-7--9--4--9--------------------------||----7-----7--------------------------|
verse 2: same as verse 1 rin kaso may onting pagkakaiba..kau na bhala dun gwin nyo nlng powerchords ung mga basic chords [very not sure] chorus: E-B-C#m-B-A-E-C#m-B
2nd part:|---------------------------------------||---------------------------------------||--9-x-----6-x---------9-x-6------------||--9-x-9-x-6-x-9-x-7-x-9-x-6-9----------||--7-x-9-x-4-x-9-x-7-x-7-x-4-9----------||------7-x-----7-x-5-x-------7----------|
adlib:chords used:|-------------------------------------||-------------------------------------||-9-----6-----------------------------||-9--9--6--9--------------------------||-7--9--4--9--------------------------||----7-----7--------------------------|
............................
|-19-21~----------------------------------------||-----------------------------------------------||--------21-20-16-18~--20-20s21-13-12s13-12s13--||-----------------------------------------------||-----------------------------------------------||-----------------------------------------------|
|--------------------------------------------------||-------------------------19----19----19-19s20~----||-18-18-19--18-19-21~--21----21----21--------------||--------------------------------------------------||--------------------------------------------------||--------------------------------------------------|
|-------------------------------------------||-19-17-16--------14-16-14-17~--------------||----------18-13~---------------------------||-------------------------------------------||-------------------------------------------||-------------------------------------------|
|----------------------------------------------------------||----------------------------------------------------------||-ung prang kotse..----------------------------------------||------------------slide nyo ung 1st 4 strings mula 1st----||fret hnggng 12 fret tpos pbalik... gnun kay joe eh..------||-slamat joe!----------------------------------------------|
........................................................
verse3:una thimik..bass lang rinig..sabay pasok na ung gitara|---------------------------------------||---------------------------------------||--9-x-----6-x---------9-x-6------------||--9-x-9-x-6-x-9-x-7-x-9-x-6-9----------||--7-x-9-x-4-x-9-x-7-x-7-x-4-9----------||------7-x-----7-x-5-x-------7----------|
tapos chorus ulit E-B-C#m-B-A-E-C#m-B
2nd part:|---------------------------------------||---------------------------------------||--9-x-----6-x---------9-x-6------------||--9-x-9-x-6-x-9-x-7-x-9-x-6-9----------||--7-x-9-x-4-x-9-x-7-x-7-x-4-9----------||------7-x-----7-x-5-x-------7----------|
tapos 2nd chorus..|---------------------------------------||---------------------------------------||--9-----6--------9--6------------------||--9--9--6--9--7--9--6-9----------------||--7--9--4--9--7--7--4-9----------------||-----7-----7--5-------7----------------|
outro:|-----------------------------------------||-----------------------------------------||--9-11-9---------6-8-6-------------------||--9-11-9--9-7-6--6-8-6--9-7-6------------||--7-9--7--9-7-6--4-6-4--9-7-6------------||----------7-5-4---------7-5-4------------|
|-----------------------------------------||-----------------------------------------||--------9-8-6--6-x-----------------------||-7-9-7--9-8-6--6-x--9-7-6----------------||-7-9-7--7-6-4--4-x--9-7-6----------------||-5-7-5--------------7-5-4----------------|
|-----------------------------------------||-----------------------------------------||--9-11-9---------6-8-6-------------------||--9-11-9--9-7-6--6-8-6--9-7-6------------||--7-9--7--9-7-6--4-6-4--9-7-6------------||----------7-5-4---------7-5-4------------|
|-----------------------------------------||-----------------------------------------||--------9-8-6--6-x-----------------------||-7-9-7--9-8-6--6-x--9-x------------------||-7-9-7--7-6-4--4-x--9-x------------------||-5-7-5--------------7-x------------------|
end with:|--------------------------||--------------------------||--9-----------------------||--9-----------------------||--7-----------------------||--------------------------|
add nyo ko sa friendster: walalang_00@yahoo.com.ph
Tap to rate this tab
 
# A B C D E F G H I J K L M N O P Q R S T U V W X Y Z