Partibrejkers - Hocu Da Znam tab

partibrejkers
hocu da znam
tabed by scepa



intro: A5 E|-------------------17---|-----------------------------|B|------------------------|------------------13---15----|G|--12h14~----------------|-----------12/14-------------|D|------------------------|-----------------------------|A|------------------------|-----------------------------|E|------------------------|-----------------------------|
G5 ---------------------------------|----------------17----|---16--13-15~-------13-----------|----------------------|-----------------------14-12-----|----------------------|-----------------------------14--|--12~-----------------|---------------------------------|----------------------|---------------------------------|----------------------|
F5 --17---------------------|-----------------------|-------------------------|-----------------------|-------------------------|--------------------x--|----------10~------7p5---|--------------------x--|-----------------------7-|---5-----3~------------|-------------------------|----------------5------|
A5 --------------------------|--------------------------|--------------------------|----------8--8/10~--------|-------5--7--7br-5-7p5----|--5--7/9------------------|----7~-----------------7--|--------------------------|--------------------------|--------------------------|--------------------------|--------------------------|
RIFF1
E|------------------------|-------------------------|B|------------------------|-------------------------|G|--2---------------------|-------------------------|D|--2---------------------|-------------------------|A|--0----3--0--3----0--5b-|----6--3--0--3--3--0--5b-|E|------------------------|-------------------------|
-------------------------|------------------------|-------------------------|------------------------|-------------------------|---------5--------------|-------------------------|------5-----7~----------|----6--3--0--3--3--0--3--|--5/7-------------------|-------------------------|------------------------|
VERSE2:
E|------------------------|B|------------------------|G|------------------------|D|---------------------2--|A|---------------------0--|E|------------------------| hocu da znam kuda ...
-------------------------|-------------------------|-------------------------|-------------------------|-------------------------|-------------------------|----2--4--2--2--2--2--2--|----2--2--2--2--2--2--2--|----0--0--0--5--0--3--0--|----0--3--0--5--0--3--0--|-------------------------|-------------------------|tamo gde je srce tamo sija sunce...
-----------------------|---------------------|--7b---7r-7---------7--|--7----7--5----------|--7b---7r-7---------7--|--7----7--5----------|-----------------------|---------------------|-----------------------|---------------------|-----------------------|---------------------|tamo gde je strah tamo zivi mrak
SOLO: B5 E|-------------------|------7--------------------|B|-------------------|--------10-7---------------|G|--9b---------------|--------------9br-7-9p7----|D|-------------------|------------------------9--|A|-------------------|---------------------------|E|-------------------|---------------------------|
A5 ------------------------|-------------------------|------------------------|-------------------------|--7--9b---7~------------|-------------------------|-----------------9p7----|--7----------------------|---------------------9--|-------9----7------------|------------------------|-----------------10--7-5-|
G5 ----------------------------|--------------------------|----------------------------|--------------------------|----------------------------|--------------7--9--7-----|----------------------------|--------7--------------9--|--7r---7p5-----7r---7p5-----|--7h-9-----9--------------|-----------7p5----------7p5-|--------------------------|
F#5 ------------------------|---------------------|------------------------|---------------------|--9r---7--9r---7--9b-9b-|------------9--7-----|------------------------|------------------9--|------------------------|---------------------|------------------------|---------------------|
--------------------|--------------------|--7b-----------7r---|--7------------7----|--7b-----------7r---|--7------------7----|--------------------|--------------------|--------------------|--------------------|--------------------|--------------------|
--------------------|--------------------------|--5~-------5~-------|--5~---5~-5-5-5~-5~-5--5~-|--5~-------5~-------|--5~---5~-5-5-5~-5~-5--5~-|--------------------|--------------------------|--------------------|--------------------------|--------------------|--------------------------|mario majko bozija...
ending solo improvise something :)
Tap to rate this tab
 
# A B C D E F G H I J K L M N O P Q R S T U V W X Y Z