Passafire - Laquiji tab

Song: Laquiji
Band: Passafire
Album: Passafire
Tabbed by: O-52-A-50-R


Intro/Solo

|--------------------||-----9--------------||7-8-----7-8---------||------------9-------||--------------------||--------------------|
|-------------------------||-------------------------||8------------------------||--11p9----9h11p9---------||-------11--------9-9h11--||-------------------------|
|-----------------||--------11-12----||-----------------||9-11-13----------||-----------------||-----------------|
|11----------------16(/14)-------11----------14-14-||---14p12----12-14---------12-14----14-12-11-11-11-||---------13---------------------------------------||--------------------------------------------------||--------------------------------------------------||--------------------------------------------------||--------------------------------------------------|
|12-11--------------------------------||------14-12-14b16r14p12----14-12-----||------------------------13-------13/-||---------------------------------13/-||-------------------------------------||-------------------------------------|
Verse
|----------||9-9-12-12-||8-8-11-11-||----------||----------||----------|
*This might be the bass but I can never tell with all the effects so here’s the tab:
|--------------------------||--------------------------||----------------------4-3-||--------2-1-2-4-4-4-4-----||--------------------------||4-4-4-4-------------------|
Chorus Pick or strum these chords
|7----5---7----9---||7----5---9---11---||8----6---9---11---||9----7---9---11---||9----7---7----9---||7----5---7----9---|
Outro
|----------||9-9-12-12-||8-8-11-11-||----------| (repeat as necessary)|----------||----------|
|2----4---||2----4---||3----4---||4----6---||4----6---||2----4---|
Tap to rate this tab
 
# A B C D E F G H I J K L M N O P Q R S T U V W X Y Z