Divide tab with lyrics by Passafire - Easy chords and tabs for guitar

Passafire – Divide tab

Song: Divide
Band: Passafire
Album: Submersible
Tabbed by: O-52-A-50-R


Intro (2 different octaves)

|-------------------||-------------------||-------------------||----------------0--||------------1-3-5--||1-3-4---3-4--------|
Or
|-----------------------10--||-----------------11-13-10--||10-12-13---12-13-----------||---------------------------||---------------------------||---------------------------|
|------6-6-10-10-10-10-||10-10-6-6-10-10-10-10-||10-10-----------------| (repeat as necessary)|----------------------||----------------------||----------------------|
|------6-6-8-8-6-6-----||10-10-6-6-8-8-6-6-----||10-10-----------------||----------------------||----------------------||----------------------|
|------8-8-10-10-10-10-||10-10-8-8-10-10-10-10-||10-10-----------------| |----------------------||----------------------||----------------------|
|-------------------||-------------15----||---14--------------||12----15p12--------| |-------------------||-------------------|
Verse This is really played by piano/keyboard but here’s the tab for guitar
|------6-6-10-10-10-10-||10-10-6-6-10-10-10-10-||10-10-----------------| |----------------------||----------------------||----------------------|
|------6-6-8-8-6-6-----||10-10-6-6-8-8-6-6-----||10-10-----------------||----------------------||----------------------||----------------------|
|------8-8-10-10-10-10-||10-10-8-8-10-10-10-10-||10-10-----------------| |----------------------||----------------------||----------------------|
|-------------------||-------------15----||---14--------------||12----15p12--------| < - - Guitar, not keyboard|-------------------||-------------------|
Repeat all as necessary Chorus *this is guitar not keyboard
|----------------||----------------||--------3-3-2-2-||3-3-3-3-3-3-2-2-||3-3-3-3-1-1-0-0-||1-1-1-1---------|
Ending chord:|-------||-------||-------||---5---||---5---||---3---|
Chorus to Verse
|-------10-10-||-9—-8--10-10-||10-10--------||-------------| (Repeat as necessary)|-------------||-------------|
Bass/Keyboard Solo (Right before outro)
|-------10-10-||-9—-8--10-10-||10-10--------||-------------| (Repeat as necessary)|-------------||-------------|
Outro|-------------------||-------------------||-------------------||----------------0--||------------1-3-5--||1-3-4---3-4--------|
Or
|-----------------------10--||-----------------11-14-10--||10-12-13---12-13-----------||---------------------------||---------------------------||---------------------------|
Order of Song: Intro Verse Chorus Chorus to Verse Verse Chorus Chorus to Verse Bass/Keyboard Solo (Right before outro) Outro
Please rate this tab:
x1.0