Patent Pending - One Less Heart To Break tab version 1

One Less Heart To Break
Patent Pending

Tabbed by:Tyler Swetmon

~ = Let it ring.

|----------------------------||----------------------------||------5-------5-------------||77777-5-55555-5-33333x3-3---|x3 [x8]|77777-3-55555-3-33333x3-3x3-||55555---33333---11111x1-1x1-|
|------------------------------||------------------------------||------------------------------||3333333-5555555-77777777777777|3333333-5555555-77777777777777|1111111-3333333-55555555555555
|-----------------------------------||-----------------------------------||-----------------------------------||3333333-5555555-77777777777777-555-||3333333-5555555-77777777777777-555-||1111111-3333333-55555555555555-333-|
|-----------------||-----------------||-----------------||3333333-5555555-7|3333333-5555555-7|1111111-3333333-5
|------------------------------||------------------------------||------------------------------||3333333-5555555-77777777777777|3333333-5555555-77777777777777|1111111-3333333-55555555555555
|----------------------------||----------------------------||------5-------5-------------||77777-5-55555-5-33333x3-3---|x3 [x4]|77777-3-55555-3-33333x3-3x3-||55555---33333---11111x1-1x1-|
|------------------------------||------------------------------||------------------------------||3333333-5555555-77777777777777|3333333-5555555-77777777777777|1111111-3333333-55555555555555
|-----------------------------------||-----------------------------------||-----------------------------------||3333333-5555555-77777777777777-555-||3333333-5555555-77777777777777-555-||1111111-3333333-55555555555555-333-|
|-----------------||-----------------||-----------------||3333333-5555555-7|3333333-5555555-7|1111111-3333333-5
|------------------------------||------------------------------||------------------------------||3333333-5555555-77777777777777|3333333-5555555-77777777777777|1111111-3333333-55555555555555
|----------------------------------||----------------------------------||----------------------------------||7777777-5555555-3333333-5555-6666-| [x8]|7777777-5555555-3333333-5555-6666-||5555555-3333333-1111111-3333-4444-|
|--------------------------------||--------------------------------||--------------------------------||777-----555-----333-----333-555-||777-232-555-232-333-232-333-555-||555-----333-----111-----111-333-|
|--------------------------------||--------------------------------||--------------------------------||777---5-555---5-333---5-333-555-||777-23--555-23--333-23--333-555-||555-----333-----111-----111-333-|
|----------------------------------||----------------------------------||----------------------------------||7777777-5555555-3333333-5555-6666-| [x6]|7777777-5555555-3333333-5555-6666-||5555555-3333333-1111111-3333-4444-|
|---------||---------||---------||7~----7~-||7~----7~-||5~----5~-|
Tap to rate this tab
 
# A B C D E F G H I J K L M N O P Q R S T U V W X Y Z