Paul Gilbert – You Kids tab

artist:           PAUL GILBERT
song:             YOU KIDS SOLO
album:          GET OUT OF MY YARD
tuning:            E-A-D-G-B-E

I said i would have the solo sometime soon so here it is
the solo for YOU KIDS hope you all enjoy.

                                      Zakkrhoads69@yahoo.com


16-12-14-16-14-12-----12----------------------------------|-----------------15-14---15-14-12-15-12-14-15-14-12-------|----------------------------------------------------14-13-|----------------------------------------------------------|----------------------------------------------------------|----------------------------------------------------------|
---------------------------------------------------------|12-------------------------------------------------------|---14-13-11-14-11-13-14-13-11-----11---------------------|-----------------------------14-12--14-12-11-14-11-12-14-|---------------------------------------------------------|---------------------------------------------------------|
--------------------------------------16-19-16-17-19-17-16-|--------------------------2/-15-17-19----------------------|-----------------------------------------------------------|12-11------12----------------------------------------------|-----14-12----14-12-11-------------------------------------|-----------------------12----------------------------------|
14-16-17-16-14------------------12-16-12-14-16-14-12-10-12-|--------------17-15-14-12-14-15----------------------------|-----------------------------------------------------------|-----------------------------------------------------------|-----------------------------------------------------------|-----------------------------------------------------------|
14-12-10----------------9-11-12-11-9----------------------|--------14-12-10-9-10-12-------------12-10-9----15^-------|---------------------------------------------9--14^-------|----------------------------------------------------------|----------------------------------------------------------|----------------------------------------------------------|
---------------------------------------------------------|17/--00002222555577779999121212121414141417171717--------|---------------------------------------------------------|---------------------------------------------------------|---------------------------------------------------------|---------------------------------------------------------|
12-14-12---12-14-12--12--14^-14^-14^------12-------------|---------14--------14----------------5/-12--12-9-0-9-12--|---------------------------------------------------------|---------------------------------------------------------|---------------------------------------------------------|---------------------------------------------------------|
12------------13--------------13-------------14-----------|--12-9-0-9-12---13-10-0-10-13---13-10-0-10-13--14-11-0-11-|----------------------------------------------------------|----------------------------------------------------------|----------------------------------------------------------|----------------------------------------------------------|
--14--------------15--------------15--------------16------|14--14-11-0-11-14---15-12-0-12-15----15-12-0-12-15--16-13-|----------------------------------------------------------|----------------------------------------------------------|----------------------------------------------------------|----------------------------------------------------------|
----17----------18----------19-----------19^19^19^19^19^-|0-13--17-14-0-14--18-15-0-15--19-16-0-16-----------------|---------------------------------------------------------|---------------------------------------------------------|---------------------------------------------------------|---------------------------------------------------------|
Please rate this tab:
x1.0