Paul Gilbert - Hurry Up tab

ARTIST:          PAUL GILBERT
ALBUM:        GET OUT OF MY YARD
SONG:             HURRY UP
TUNING:          E-A-D-G-B-E

             This is pretty much the whole song. I don't have the solo right now. 
pretty much repeats it's self after the solo it's not that hard to put it together after that. 
fun!  Peace.

--------------------------------------------------------------------|x1--------------------------------------------------------------------|------------------------4-2---------6/8-6---------4-2-1-------------|--2-4-2-4/6-4-2---1-2------------------------1-2--------4-2-1-------|----------------0-----0-----4-6-7-4--------0-----0------------4-2-0-|0-------------------------------------------------------------------|
---------------------------------------0----------------------------|x1--------0-------------3--------------7------------3-----------------|--0-2-0---2-0-----0-----5------0--------------0-----5-4-2-0---------|----------------4------------4--------------4---------------4-2-0---|--------------3-----3------7------7-------3-----3-----------------3-|3-------------------------------------------------------------------|
-------------------0-0-0-0------------------------7--7--7--7-------|-------------------0-0-0-0----0-0--0-0--0---0-0--10-10-10--9-------|-------------------2-2-2-1----9-11-9-11/13-11-9---9--9--9--9-------|--2-4-2-4/6-4-2----2-2-2-2-----------------------------------------|-------------------0----------------------------0-------------0----|0---------------0-----------0--------------------------------------|
7-7-7-7------------------------------------------------------------|7-7-7-9------------------------------------------------------------|9-9-9-9--------------9---------------------------------------------|-----------9-9-9-9-9-9-9-9-9-9-9---9--9-9-9--9--9-9--9-9-9---------|--------0--9-9-9-9-9-7-9-9-9-9-9---9--9-9-9--9--9-9--9-9-9---------|-----------7-7-7-7-7---7-7-7-7-7-0-7--7-7-7--7--7-7--7-7-7---------|
2-2-2-2-2-3-2-2-2-2-2-3-2--2-2-2--2--2-2--2-2-2--0--0--0--0--0-----|3-3-3-3-3-3-3-3-3-3-3-3-3--3-3-3--3--3-3--3-3-3--0--0--0--0--0-----|2-2-2-2-2-2-2-2-2-2-2-0-2--2-2-2--2--2-2--2-2-2--2--2--2--2--1-----|----------------------0--------------------------2--2--2--2--2-----|----------------------2--------------------------2--2--2--2--2-----|----------------------3--------------------------0--0--0--0--0-----|
-------------------------------------------------------------------|-------------------------------------------------------------------|-------------------------------------------------------------------|-------------------------------------------------------------------|-------------------xxxxxxx--------------------xxxxxxx--------------|0-4-5-4-5-7-5-4-0--xxxxxxx--0-4-5-4-5-7-5-4-0-xxxxxxx--0-4-5-4-5-7-|
--------------------------------------------------------------------|----------------------3-------3-3----------------------------------|-----------------2----2---2---2-2--2-------------------------------|----------9-7----2--------2--------2-------------------------------|----------7-5----4--------4--------0---------------------xxxxxx----|5-4-5-4-0-----0-----0---0---0----------0-4-5-4-5-7-5-4-0-xxxxxx----|
-------------------------------------------------------------------|-----------------------------------------------------------3-------|-------------------------------------------------------2---2---2---|-------------------------------------------------9-7---2-------2---|------------------xxxxxxx------------------------7-5---4-------4---|0-4-5-4-5-7-5-4-0-xxxxxxx-0-4-5-4-5-7-5-4-5-4-0------0---0---0-----|
----------0---0---------------------------0---0--------------------|--3-3-----0---0---------------------------0---0--------------------|--2-2--2--3---8---------------------------3---8--------------------|-------2--4---9---------------------------4---9--------------------|-------0--4---9--------------------xxxxx--4---9--------------------|0---------2---7--0-4-5-4-5-7-5-4-0-xxxxx--2---7--------------------|
---------7-----12-11-9---------------------------------------------|-----------7-----------9--------------------------------------9-12-|----9-11-----8-----------9/8---11-9-8-------------9------9-11------|--9--------------------------9--------11-9-7-9/11------9-----------|7---------------------------------------------------11-------------|-------------------------------------------------------------------|
-------------------------------------------------------------------|10-12-10-9-10------------------------------------------------------|--------------11-9--8--8---8-9-11-/14-13-11------------------------|--------------------9----9-----------------------------------------|-------------------------------------------------------------------|-------------------------------------------------------------------|
----------7-----12-11-9---------------------------------------------|------------7-----------9--------------------------------------9-12-|-----9-11-----8-----------9/8---11-9-8-------------9------9-11------|---9--------------------------9--------11-9-7-9/11------9-----------|-7---------------------------------------------------11-------------|0-------------------------------------------------------------------|
-------------------------------------------------------------------|10-12-10-9-10------------------------------------------------------|--------------11-9--8--8---8-9-11-/14-13-11--2--11-12-14-17-16-14--|--------------------9----9-------------------0---------------------|-------------------------------------------------------------------|-------------------------------------------------------------------|
--------------------------------------------------------------------|x1--------------------------------------------------------------------|------------------------4-2---------6/8-6---------4-2-1-------------|--2-4-2-4/6-4-2---1-2------------------------1-2--------4-2-1-------|----------------0-----0-----4-6-7-4--------0-----0------------4-2-0-|0-------------------------------------------------------------------|
-----------------------|x1--14---14-----14-14-14-|--14---14-----14-14-13-|--12---12-----12-12-12-|-----------------------|0----0----0-0----------|
------------------------------|x1------------------------------|------0-4-7-4-7-4-0---0-------|------------------------------|0-4-7---------------7---7-4-0-|------------------------------|
------------------------|----------------7-------|--------7-6-------9-7-6-|5-----------9-8---------|--7-4-0-----------------|------------------------|
-----------------------|x1--14---14-----14-14-14-|--14---14-----14-14-13-|--12---12-----12-12-12-|-----------------------|0----0----0-0----------|
------------------------------|x1------------------------------|------0-4-7-4-7-4-0---0-------|------------------------------|0-4-7---------------7---7-4-0-|------------------------------|
------------------------|----------------7-------|--------7-6-------9-7-6-|5-----------9-8---------|--7-4-0-----------------|------------------------|
-----------------------|x1--14---14-----14-14-14-|--14---14-----14-14-13-|--12---12-----12-12-12-|-----------------------|0----0----0-0----------|
------------------------------|x1------------------------------|------0-4-7-4-7-4-0---0-------|------------------------------|0-4-7---------------7---7-4-0-|------------------------------|
------------------------|----------------7-------|--------7-6-------9-7-6-|5-----------9-8---------|--7-4-0-----------------|------------------------|
7-5-0----------------------------------------------------------|------7-5-0---------------9----9-----9-9-9---7---7-----7-7-7---|------------9-7-0---------9----9-----9-9-8---7---7-----7-7-6---|------------------9-7-0---7----7-----7-7-7---5---5-----5-5-5---|-------------------------------------------0---0---0-0---------|------------------------7----7---7-7---------------------------|
Tap to rate this tab
 
# A B C D E F G H I J K L M N O P Q R S T U V W X Y Z