Paul Simon - Peace Like A River tab

It sounds best if tuned a whole tone down, but its not absolutly necessary, it 
still sounds good in standard

Em7 D|---------------------|--0--------0--0---|---------------------| A|---------------------|-----3-----3--3---|---------------------| F|---------------------|--------0--0--0---|---------------------| C|-----2-----0--2------|-----------2------|-----2-----0--2------| G|---------------------|------------------|---------------------| D|--0-----0--------0---|------------------|--0-----0--------0---|
|--0--------0---|---------------------|--0--------0---| |-----3-----3---|---------------------|-----3-----3---| |--------0--0---|---------------------|--------0--0---| |-----------2---|-----2-----0--2------|-----------2---| |---------------|---------------------|---------------| |---------------|--0-----0--------0---|---------------|
Em7 Am G Peace like a river ran through the city C G C Am Long past the midnight curfew We sat starry-eyed Em7 Ah,ah, We were satisfied Em Am G Ah, And I remember Misinformation followed us like a plague C G C Am Nobody knew from time to time If the plans were changed Am/G D7/F# G Am7 G/B Ah, ah, Ah, If the plans were changed. Am G You can beat us with wires D7/F# You can beat us with chains You can run out your rules Em Am7 G/B But you know you can't outrun the history train Am7 Gmaj7 D Em I've seen a glorious day, aiee------------ee-----
|-----------8-----------8-----------| |-----------------0-----------0-----| |-----5/-9-----9-----9-----9-----9--| |-----------------------------------| |--0--------------------------------| |-----------------------------------|
|--8------------8------------8-----------| |--------0------------0------------0-----| |-----9-----9------9-----9------9-----9--| |----------------------------------------| |----------------------------------------| |----------------------------------------|
|----------------0-------------|------------------------------------| |----8--7--5--0--------------0-|------0-----0-----------------------| |-----------------------7------|--7---------------------0-----------| |--------------------9-----9---|---------7--------7-----------7-----| |------------------------------|---------------9-----9-----9-----9--| |-0----------------------------|------------------------------------|
|--------------------------------------| |--------------------------------------| |--0-----------0-----------0-----------| |--------7-----------7-----------7-----| |-----9-----9-----9-----9-----9-----9--| |--------------------------------------|
|-----------------------------------|-----------------------| |-----------------------------------|-----------------------| |-----------------------0-----------|-----------------------| |-----------2-----------------------|-----------------------| |-----1--2-----2--0-----------------|-----2------0--2-------| |--0-----------------5-----2--(3)---|--0-----0---------0----|
|--0--------0--|-----------------------|--0--------0--| |-----3-----3--|-----------------------|-----3-----3--| |--------0--0--|-----------------------|--------0--0--| |-----------2--|-----2------0--2-------|-----------2--| |--------------|-----------------------|--------------| |--------------|--0-----0---------0----|--------------|
Em Four in the morning Am G I woke up from out of my dreams C G Nowhere to go but back to sleep C Am But I'm reconciled Am/G D7/F# Em7 Oh, oh, oh, I'm going to be up for awhile C Am/G D7/F# Em7 Oh, oh, oh, I'm going to be up for awhile C Am/G D7/F# Em7 Oh, oh, oh, I'm going to be up for awhile
|-----------8-----------8-----------| |-----------------0-----------0-----| |-----5/-9-----9-----9-----9-----9--| |-----------------------------------| |--0--------------------------------| |-----------------------------------|
|--8------------8------------8-----------| |--------0------------0------------0-----| |-----9-----9------9-----9------9-----9--| |----------------------------------------| |----------------------------------------| |----------------------------------------|
|----------------0--------------|-----------------------------------| |----8--7--5--0--------------0--|------0-----0----------------------| |-----------------------7-------|--7---------------------0----------| |--------------------9-----9----|---------7--------7-----------7----| |-------------------------------|---------------9-----9-----9-----9-| |-0-----------------------------|-----------------------------------|
|--------------------------------------| |--------------------------------------| |--0-----------0-----------0-----------| |--------7-----------7-----------7-----| |-----9-----9-----9-----9-----9-----9--| |--------------------------------------|
|----------------------------------|----------0-----0-|-----------0-| |----------------------------------|-------3-----0----|--3-----3----| |----------------------0-----------|----4-------------|-----3-------| |----------2-----------------------|------------------|-------------| |----1--2-----2--0-----------------|------------------|-------------| |-0-----------------5-----2--(3)---|-0----------------|-------------|
|-----0--|-----------|-----------| |-----3--|-----------|-----------| |-----4--|-----------|-----------| |-----4--|-----------|-----------| |--------|-----------|-----------| |--------|--0--3--(5)|--0--3--(3)|
Tap to rate this tab
 
# A B C D E F G H I J K L M N O P Q R S T U V W X Y Z