Pavement – Hexx tab

PAVEMENT
"THE HEXX"
Track 10 from TERROR TWILIGHT LP

Structure:
Verse 1
Chorus
Bridge 1
Verse 2
Solo
Bridge 2

Playing style, timing, pull-offs, hammer-ons, harmonics, WHATEVER are not included.
Just listen to the recording, it's fairly straightforward.

VERSE 1

"Capistrano swallow answer to your inner voice and please return..."
                                                                              
E||--------3---------3-----|--------2---------2-----|--------0---------0-----|B||------------------------|------------------------|------------------------|G||------------------------|--0--0---------0-----0--|------------------------|D||------------------------|------------------------|--4--4---------4-----4--|A||------------------------|------------------------|------------------------|E||--0--0---------0-----0--|------------------------|------------------------|
--------0---------0-----|------------------------|------------------------|------------------------|--------3---------3-----|--------2---------2-----|------------------------|------------------------|--0--0---------0-----0--|--3--3---------3--------|--2--2---------2-----2--|------------------------|---------------------0--|------------------------|------------------------|------------------------|------------------------|------------------------|
------------------------|-------------------------|--------3------------|--------2---------2-----|-------------------------|---------------------|------------------------|-------------------------|---------------------|--4--4---------4-----0--|--------4----------0-----|---------------------|------------------------|--2--2-----2----5--------|---------------------|------------------------|----------------------5--|--0--0---------------|
--------2------------|--------0------------|--7----------------|---------------------|---------------------|--5----------------|--0--0---------------|---------------------|--4----------------|---------------------|--4--4---------------|--3----------------|---------------------|---------------------|-------------------|---------------------|---------------------|-------------------|
---------------------|---------------------|----------------------|--------3------------|--------2------------|--------2-------------|---------------------|--0--0---------------|----------------------|--2--2---------------|---------------------|--4--4----------------|---------------------|---------------------|-------------------0--|---------------------|---------------------|----------------------|
-------------------------|--------3---------3-----|--------2---------2----|-------------------------|------------------------|-----------------------|-------------------------|------------------------|--0--0---------0-------|--------4----------0-----|------------------------|-----------------------|--2--2-----2----5-----0--|------------------------|-----------------------|-------------------------|--0--0---------0-----0--|-----------------------|
--------0---------0----|--------0---------0----|------------------------|-----------------------|-----------------------|--------3---------3-----|-----------------------|-----------------------|------------------------|--4--4---------4-------|--3--3---------3-------|--2--2---------2-----2--|-----------------------|-----------------------|------------------------|-----------------------|-----------------------|------------------------|
------------------------|------------------------|-------------------------|--------2---------2-----|--------2---------2-----|-------------------------|--0--0---------0--------|------------------------|-------------------------|---------------------0--|--4--4---------4-----0--|--------4----------0-----|------------------------|------------------------|--2--2-----2----5--------|------------------------|------------------------|----------------------5--|
CHORUS "But I.... saw you... reeling in a parking lot, I..."
--------------------------|--------------------------|--------------------------|--0--0--0--0--0--0--0-----|--------------------------|--2--2--2--2--2--2--2-----|--2--2--2--2--2--2--2--2--|--0--0--0--0--0--0--0--0--|--2--2--2--2--2--2--2--2--|-----------------------0--|--0--0--0--0--0--0--0--0--|--------------------------|
--------------------------|--------------------------|--------------------------|--------------------------|--2--2--2--2--2--2--2--2--|--------------------------|--2--2--2--2--2--2--2--2--|--7--7--7--7--7--2--4--0--|--4--4--4--4--4--4--4--4--|--------------------------|--------------------------|--------------------------|
--------------------------|--------------------------|--------------------------|--------2-----------2-----|--------------------------|--2--2--2--2--2--2--2-----|--2--2--2--2--2--2--2--2--|--0--0--0--0--0--0--0--0--|--2--2--2--2--2--2--2--2--|-----------------------0--|--0--0--0--0--0--0--0--0--|--------------------------|
--------------------------|--------------------------|----------------------2--|--------------------------|-----------------------0--|----------------------2--|--2--2--2--2--2--2--2-----|-----------------------1--|----------------------2--|--2--2--2--2--2--2--2--2--|--7--7--7--7--7--2--4--2--|----2--2--2--2--2--2--0--|--4--4--4--4--4--4--4--4--|-----------------------2--|----2--2--2--2--2--2-----|--------------------------|-----------------------0--|----0--0--0--0--0--0-----|
----------------------0--|----------------------0--|-------------------------|----------------------0--|----------------------0--|----------------3--3--3/-|----2--2--2--2--2--2--2--|----2--2--2--2--------2--|----2--2--2--2--2--2--2/-|----0--0--0--0--0--0--2--|----2--2--2--2--2--2--2--|----2--2--2--2--2--2-----|----------------------4--|----4--4--4--4--------0--|----0--0--0--0--0--0-----|-------------------------|----------------0--2-----|-------------------------|
----------------------2--|----------------------0--|----------------------0--|--5-------------------2--|----------------------0--|----------------------0--|--4-------------------2--|----2--2--2--2--2--2--2--|----2--2--2--2--------2--|-------2--2--2--2--2--0--|----0--0--0--0--0--0--2--|----2--2--2--2--2--2--2--|-------2--2--2--2--2-----|----------------------4--|----4--4--4--4--------0--|-------0--0--0--0--0-----|-------------------------|----------------0--2-----|
-------------------------|----------------0--0--0--|----2--2--2--2--2--2--0--|----2--2--2--2--0--0-----|----0--0--0--0-----------|-------------------------|
BRIDGE 1 starts when the following lyrics END: "we are destined for the pauper's grave.. the hexx"
--------3--3--------2--2--|--------0--0--0-----------|--------------------------|--------------------------|--------------0--0--------|--------------------------|--------------------------|--4--4-----------3--3-----|--------------------------|-----------------------0--|--0--0--------------------|--------------------------|
--------------------------|--------------------------|--------3--3--------2--2--|--------2--2--2-----------|--------------0--0--------|--------------------------|--2--2--------------------|--4--4-----------2--0-----|--------------------------|-----------------------2--|--------------------------|--------------------------|
--------3--3--------2--2--|--------0--0--0-----------|--------------------------|--------------------------|--------------0--0--------|--------------------------|--------------------------|--4--4-----------3--3-----|--------------------------|-----------------------0--|--0--0--------------------|--------------------------|
--------------------------|-------------------------|--------3--3--------2--2--|-------2-----------------|--------------0--0--------|-------------------------|--2--2--------------------|--4-------4--4--4--2--0--|--------------------------|-------------------------|--------------------------|-------------------------|
VERSE 2 "Architecture students are like virgins..."
--------3---------3-----|------------------------|------------------------|------------------------|------------------------|--0--0---------0-----0--|
--------2---------2-----|--------0---------0-----|--------0---------0-----|------------------------|------------------------|------------------------|--0--0---------0-----0--|------------------------|------------------------|------------------------|--4--4---------4-----4--|--3--3---------3--------|------------------------|------------------------|---------------------0--|------------------------|------------------------|------------------------|
------------------------|------------------------|------------------------|--------3---------3-----|--------2---------2-----|--------2---------2-----|------------------------|--0--0---------0-----0--|------------------------|--2--2---------2-----2--|------------------------|--4--4---------4-----0--|------------------------|------------------------|------------------------|------------------------|------------------------|------------------------|
-------------------------|--------3---------3-----|--------2---------2-----|-------------------------|------------------------|------------------------|-------------------------|------------------------|--0--0---------0-----0--|--------4----------0-----|------------------------|------------------------|--2--2-----2----5--------|------------------------|------------------------|----------------------5--|--0--0---------0-----0--|------------------------|
--------0---------0-----|--------0---------0-----|------------------------|------------------------|------------------------|--------3---------3-----|------------------------|------------------------|------------------------|--4--4---------4-----4--|--3--3---------3--------|--2--2---------2-----2--|------------------------|---------------------0--|------------------------|------------------------|------------------------|------------------------|
------------------------|------------------------|--------------------------|--------2---------2-----|--------2---------2-----|--------------------------|--0--0---------0-----0--|------------------------|--------------------------|------------------------|--4--4---------4-----0--|--------4-----------0-----|------------------------|------------------------|--2--2-----2--2--5-----5--|------------------------|------------------------|--------------------------|
SOLO
------7----7--10----10b-|----10b-10b-10b-10b-10----------|------------------------|------------------------10--10--|------------------------|--------------------------------|------------------------|--------------------------------|------------------------|--------------------------------|------------------------|--------------------------------|
--------------------------|------------7-7-----9-10-|--8-------------8--10--8--|------------8-8----------|-------9--7--9------------|--------7h9--------------|--------------------------|-------------------------|--------------------------|-------------------------|--------------------------|-------------------------|
--12-10-9------------7----7-----|--10b-12----15r---------15--17--|----------12-12------8----8--12-|----------------15--12----------|-------------12---------9-------|--------------------------------|--------------------------------|--------------------------------|--------------------------------|--------------------------------|--------------------------------|--------------------------------|
--12--10--12-12--12--12--12-12-12--12-|--------------------------------------|--------------------------------------|--------------------------------------|--------------------------------------|--------------------------------------|
--12-12-12-12-12-10-10----10----10--------|---------------------------------|-----------------------12----12-----12----|--9------9------9------9---9/----|------------------------------------------|----9------9------9------9-9/----|------------------------------------------|------12-----11-----12-----------|------------------------------------------|---------------------------------|------------------------------------------|---------------------------------|
---------------------------------|---------------------------------------|--9------9------9------9---9/----|--9------9------9------9------9------9-|----9------9------9------9-9/----|----9------9------9------9------9------|------12-----11-----12-----------|------12-----11-----12-----11-----12---|---------------------------------|---------------------------------------|---------------------------------|---------------------------------------|
---------------------------------|---------------------------------|-------9------9------9---9-9/----|--9------9------9------9---9/----|--9------9------9------9---9/----|----9------9------9------9-9/----|----11-----12-----11-------------|------12-----11-----12-----------|---------------------------------|---------------------------------|---------------------------------|---------------------------------|
---------------------------------|---------------------------------------|--9------9------9------9---9/----|--9------9------9------9------9------9-|----9------9------9------9-9/----|----9------9------9------9------9------|------12-----11-----12-----------|------12-----11-----12-----11-----12---|---------------------------------|---------------------------------------|---------------------------------|---------------------------------------|
--------------------------------|-------9------9------9----------|--9------9------9-------6--0----|----11-----12-----11------------|--------------------------------|--------------------------------|
BRIDGE 2
--------3--3--------2--2--|--------------------------|--------------0--0--------|--------------------------|--------------------------|--0--0--------------------|
--------0--0--0-----------|--------------------------|-------------------------|--------------------------|--------3--3--------2--2--|-------------------------|--------------------------|--------------0--0--------|-------------------------|--4--4-----------3--3-----|--2--2--------------------|--4----4--4--4--2--2--0--|-----------------------0--|--------------------------|-------------------------|--------------------------|--------------------------|-------------------------|
--------3--3--------2--2--|--------0--0--0-----------|--------------------------|--------------------------|--------------0--0--------|--------------------------|--------------------------|--4--4-----------3--3-----|--------------------------|-----------------------0--|--0--0--------------------|--------------------------|
--------------------------|-------------------------|--------3--3--------2--2--|--------3--3--------2--2--|-------------------------|--------------------------|--------------0--0--------|-------------------------|--------------0--0--------|--2--2--------------------|--4----4--4--4--2--2--0--|--------------------------|--------------------------|-------------------------|--------------------------|--------------------------|-------------------------|--0--0--------------------|
--------0--0--0-----------|--------------------------|-------------------------|--------------------------|--------3--3--------2--2--|-------------------------|--------------------------|--------------0--0--------|-------------------------|--4--4-----------3--3-----|--2--2--------------------|--4----4--4--4--2--2--0--|-----------------------0--|--------------------------|-------------------------|--------------------------|--------------------------|-------------------------|
--------3--3--------2--2--|--------0--0--0-----------|--------------------------|--------------------------|--------------0--0--------|--------------------------|--------------------------|--4--4-----------3--3-----|--------------------------|-----------------------0--|--0--0--------------------|--------------------------|
--------------------------|------------------------|-------------------|--------3--3--------2--2--|------------------------|-------------------|--------------0--0--------|------------------------|-------------------|--2--2--------------------|--4----4--4--4--2--2----|--2----------------|--------------------------|------------------------|--2----------------|--------------------------|------------------------|--0----------------|
Please rate this tab:
x1.0