Pavement - Grave Architecture tab

These are not organized, but they are complete and have totally accurate tabs for both
guitars, all parts of the song.


Pavement
Grave Architecture       

Guitar 1  (Capo 1)
                                                                        
E||----------------------|----------------------|----------------------|B||----------------------|----------------------|----------------------|G||----------------------|----------------------|----------------------|D||-----------6----------|--6-------------------|-----------6----------|A||--4--5--6-------------|-----6--5--4----------|--4--5--6-------------|E||----------------------|----------------------|----------------------|
-----------------------------------|--------------------------|-----------------------------------|--------------------------|-----------------------------------|--------------------------|--6--------------------------------|--------------------------|-----6--5--4----4---4-4--6--4------|--2-----2-----2-----2--3--|-----------------------------------|-----0-----0-----0--------|
--------------------------|--------------------------|--------------------------|--------------------------|--------------------------|--------------------------|--------------------------|--------------------------|--4-----4-----4-----4--6--|--2-----2-----2-----2--3--|-----5-----5-----5--------|-----0-----0-----0--------|
--------------------------|--------------------------|--------------------------|--------------------------|--------------------------|--------------------------|--------------------------|--------------------------|--4-----4-----4-----4--6--|--2-----2-----2-----2--3--|-----5-----5-----5--------|-----0-----0-----0--------|
--------------------------|--------------------------|--------------------------|--------------------------|--------------------------|--------------------------|--------------------------|--------------------------|--4-----4-----4-----4--6--|--2-----2-----2-----2--3--|-----5-----5-----5--------|-----0-----0-----0--------|
--------------------------|-------4------4--------|-------0------0--------|--------------------------|-------4------4--------|-------2------2--------|--------------------------|-------4------4--------|-------1------1--------|--------------------------|--6--------------------|-------2------2--------|--4-----4-----4--4--5--6--|-----------------6--5--|--4--------------5--6--|-----5-----5--------------|-----------------------|-----------------------|
-------4------4--------|-------0------0--------|-------4------4--------|-------4------4--------|-------2------2--------|-------4------4--------|-------4------4--------|-------1------1--------|-------4------4--------|--6--------------------|-------2------2--------|--6--------------------|-----------------6--5--|--4--------------5--6--|-----------------6--5--|-----------------------|-----------------------|-----------------------|
-------0------0--------|-------4---4-4--4--------|------------------------|-------2------2--------|-------4---4-4--4--------|------------------------|-------1------1--------|-------4---4-4--4--------|------------------------|-------2------2--------|--6----------------------|------------------------|--4--------------5--6--|-------------------6--5--|--4----4---4-4--6--4----|-----------------------|-------------------------|------------------------|
--------------------------|--------------------------|--------------------------|--------------------------|--------------------------|--------------------------|--------------------------|--------------------------|--2-----2-----2-----2--3--|--4-----4-----4-----4--6--|-----0-----0-----0--------|-----5-----5-----5--------|
--------------------------|--------------------------|--------------------------|--------------------------|--------------------------|--------------------------|--------------------------|--------------------------|--2-----2-----2-----2--3--|--4-----4-----4-----4--6--|-----0-----0-----0--------|-----5-----5-----5--------|
--------------------------|--------------------------|--------------------------|--------------------------|--------------------------|--------------------------|--------------------------|--------------------------|--2-----2-----2-----2--3--|--4-----4-----2-----2-----|-----0-----0-----0--------|-----5-----5-----3-----3--|
--------7--------7--------|--------7--------7--------|--5--5--5--5--5--5--5--5--|--5--5--5--5--5--5--5--5--|--4--4--4--4--4--4--4--4--|--4--4--4--4--4--4--4--4--|--------------------------|--------------------------|--------------------------|--------------------------|--------------------------|--------------------------|
--------7--------7--------|--------7--------7--------|--5--5--5--5--5--5--5--5--|--5--5--5--5--5--5--5--5--|--4--4--4--4--4--4--4--4--|--4--4--4--4--4--4--4--4--|--------------------------|--------------------------|--------------------------|--------------------------|--------------------------|--------------------------|
--------7--------7--------|--------7--------7-----7--|------------------|--5--5--5--5--5--5--5--5--|--5--5--5--5--5--5--5--5--|------------------|--4--4--4--4--4--4--4--4--|--4--4--4--4--4--4--4--4--|------------------|--------------------------|--------------------------|------------------|--------------------------|--------------------------|------------------|--------------------------|--------------------------|------------------|
---------------------|-------4------4--------|-------0------0--------|---------------------|-------4------4--------|-------2------2--------|---------------------|-------4------4--------|-------1------1--------|---------------------|--6--------------------|-------2------2--------|------------4--5--6--|-----------------6--5--|--4--------------5--6--|---------------------|-----------------------|-----------------------|
-------4------4--------|-------0------0--------|-------4------4--------|-------4------4--------|-------2------2--------|-------4------4--------|-------4------4--------|-------1------1--------|-------4------4--------|--6--------------------|-------2------2--------|--6--------------------|-----------------6--5--|--4--------------5--6--|-----------------6--5--|-----------------------|-----------------------|-----------------------|
-------0------0--------|-------4---4-4--4--------|------------------------|-------2------2--------|-------4---4-4--4--------|------------------------|-------1------1--------|-------4---4-4--4--------|------------------------|-------2------2--------|--6----------------------|------------------------|--4--------------5--6--|-------------------6--5--|--4----4---4-4--6--4----|-----------------------|-------------------------|------------------------|
--------------------------|--------------------------|--------------------------|--------------------------|--------------------------|--------------------------|--------------------------|--------------------------|--2-----2-----2-----2--3--|--4-----4-----4-----4--6--|-----0-----0-----0--------|-----5-----5-----5--------|
--------------------------|--------------------------|--------------------------|--------------------------|--------------------------|--------------------------|--------------------------|--------------------------|--2-----2-----2-----2--3--|--4-----4-----4-----4--6--|-----0-----0-----0--------|-----5-----5-----5--------|
--------------------------|--------------------------|--------------------------|--------------------------|--------------------------|--------------------------|--------------------------|--------------------------|--2-----2-----2-----2--3--|--4-----4-----2-----2-----|-----0-----0-----0--------|-----5-----5-----3-----3--|
--------7--------7--------|--------7--------7--------|--5--5--5--5--5--5--5--5--|--5--5--5--5--5--5--5--5--|--4--4--4--4--4--4--4--4--|--4--4--4--4--4--4--4--4--|--------------------------|--------------------------|--------------------------|--------------------------|--------------------------|--------------------------|
--------7--------7--------|--------7--------7--------|--5--5--5--5--5--5--5--5--|--5--5--5--5--5--5--5--5--|--4--4--4--4--4--4--4--4--|--4--4--4--4--4--4--4--4--|--------------------------|--------------------------|--------------------------|--------------------------|--------------------------|--------------------------|
--------7--------7--------|--------7--------7-----7--|------------------|--5--5--5--5--5--5--5--5--|--5--5--5--5--5--5--5--5--|------------------|--4--4--4--4--4--4--4--4--|--4--4--4--4--4--4--4--4--|------------------|--------------------------|--------------------------|------------------|--------------------------|--------------------------|------------------|--------------------------|--------------------------|------------------|
------------------|-----------------------------------|------------------|-----------------------------------|------------------|-----------------------------------|------------------|-----------------------------------|------------------|--2--------------------------------|------------------|--0--------------------------------|
-----------------------------------|-----------------------------------|-----------------------------------|-----------------------------------|-----------------------------------|-----------------------------------|-----------------------------------|-----------------------------------|--2--------------------------------|--2--------------------------------|--0--------------------------------|--0--------------------------------|
-----------------------------------|-----------------------------------|-----------------------------------|-----------------------------------|-----------------------------------|-----------------------------------|-----------------------------------|--9--------------------------------|--1--------------------------------|--7--------------------------------|--0--------------------------------|--0--------------------------------|
-----------------------------------|-----------------------------------|-----------------------------------|-----------------------------------|-----------------------------------|-----------------------------------|--9--------------------------------|--9--------------------------------|--7--------------------------------|--7--------------------------------|--0--------------------------------|--0--------------------------------|
-----------------------------------|-----------------------|-----------------------------------|--7b---7----7b-7--5----|-----------------------------------|-----------------------|--9--------------------------------|-----------------------|--7--------------------------------|-----------------------|--0--------------------------------|-----------------------|
------------------------|------------------------------|--7b---5--0----0--2--0--|--2-2-2-2-2--0--2-2-2-2-2--0--|------------------------|------------------------------|------------------------|------------------------------|------------------------|------------------------------|------------------------|------------------------------|
------------7-7-7-7-7------|-----------------------|------------------------|------2--0------------7-5--|--7b---7----7b-7--5----|--7b---5--0----0--2--0--|---------------------------|-----------------------|------------------------|---------------------------|-----------------------|------------------------|---------------------------|-----------------------|------------------------|---------------------------|-----------------------|------------------------|
------------------------------|------------7-7-7-7-7------|-------------------|--2-2-2-2-2--0--2-2-2-2-2--0--|------2--0------------7-5--|-------------------|------------------------------|---------------------------|-------------------|------------------------------|---------------------------|--2----------------|------------------------------|---------------------------|-------------------|------------------------------|---------------------------|-------------------|
------------------|-------------------|---------------------|------------------|-------------------|---------------------|------------------|--4----------------|--4-------4----------|------------------|-------------------|---------------------|------------------|-------------------|-----5---------------|------------------|-------------------|---------------------|
-----------------------|----------------------|---------------------|-----------------------|----------------------|---------------------|--4-------4------------|----------------------|---------------------|-----------------------|----------------------|---------------------|-----4-------5------5--|----4----4--4----4----|--9-------------7----|-----------------------|----------------------|---------6-----------|
---------------------|---------------------|-----------------------|---------------------|---------------------|-----------------------|---------------------|---------------------|-----------------------|---------------------|---------------------|-----------------------|-----------6---------|--5-------------5----|---------6-------------|----4-----------3----|---------2-----------|----3---------4--4--4--|
--6--6--4--4--7--7--4--4--|--6--6--4--4--5--5--4--4--|--5--5--5--5--5--5--5--5--|--5--5--5--5--5--5--5--5--|--------------------------|--------------------------|--------------------------|--------------------------|--------------------------|--------------------------|--------------------------|--------------------------|
--6--6--4--4--7--7--4--4--|--6--6--4--4--5--5--4--4--|--5--5--5--5--5--5--5--5--|--5--5--5--5--5--5--5--5--|--------------------------|--------------------------|--------------------------|--------------------------|--------------------------|--------------------------|--------------------------|--------------------------|
--6--6--4--4--7--7--4--4--|--6--6--4--4--5--5--4--4--|--5--5--5--5--5--5--5--5--|--5--5--5--5--5--5--5--5--|--------------------------|--------------------------|--------------------------|--------------------------|--------------------------|--------------------------|--------------------------|--------------------------|
--5--5--4--4--5--5--4--4--|--5--5--4--4--5--5--4--4--||--5--5--5--5--5--5--5--5--|--5--5--5--5--5--5--5--5--||--------------------------|--------------------------||--------------------------|--------------------------||--------------------------|--------------------------||--------------------------|--------------------------||
Guitar 2 comes in at verse, continues until the second to last part (bridge2) Guit 2 (Capo 1)
------|------7------7------|------9------9------|------7------7------|------|------9------9------|------9------9------|------9------9------|------|------8------8------|------9------9------|------8------8------|------|------9------9------|------7------7------|------9------9------|------|--------------------|--------------------|--------------------|------|--------------------|--------------------|--------------------|
------9------9------|------7------7------|------9------9------|------9------9------|------9------9------|------9------9------|------9------9------|------8------8------|------9------9------|------7------7------|------9------9------|------7------7------|--------------------|--------------------|--------------------|--------------------|--------------------|--------------------|
------7------7------|--9----9--9--9--9--9----|--------------------------|------9------9------|--9----9--9--9--9--9----|--------------------------|------8------8------|--9----9--9--9--9--9----|--------------------------|------9------9------|--7----7--7--7--7--7----|--------------------------|--------------------|------------------------|--2-----2-----2-----2--3--|--------------------|------------------------|-----0-----0-----0--------|
--------------------------|--------------------------|--------------------------|--------------------------|--------------------------|--------------------------|--------------------------|--------------------------|--4-----4-----4-----4--6--|--2-----2-----2-----2--3--|-----5-----5-----5--------|-----0-----0-----0--------|
--------------------------|--------------------------|--------------------------|--------------------------|--------------------------|--------------------------|--------------------------|--------------------------|--4-----4-----4-----4--6--|--2-----2-----2-----2--3--|-----5-----5-----5--------|-----0-----0-----0--------|
--------------------------|--------------------------|--------------------------|--------------------------|--------------------------|--------------------0--2--|--------------------------|--------------0--2--------|--4-----4-----2-----2-----|--------0--2--------------|-----5-----5-----3-----3--|--0--3--------------------|
--------------------------|-----------------------------|--------------------------|-----------------------------|--0-----0--2b---2b-2r0----|-------------0h2p0--2--0--2--|-----2-----------------2--|----------0------------------|--------------------------|------0h2--------------------|--------------------------|--0h3------------------------|
------------------------|------------------------|-------------------------|---------------------2--|----3--3--3--3----------|-------------------------|----0--2--4--2--0-------|----------------2--0----|-------------------------|------------------------|------------------------|----5--5--5--5p2p0-------|------------------------|------------------------|----------------------5--|------------------------|------------------------|-------------------------|
------------------|-------------------|------7------7------|------------------|-------------------|------9------9------|------------------|-------------------|------8------8------|------------------|-------------------|------9------9------|------------------|--7----------------|--------------------|------------------|-------------------|--------------------|
------9------9------|------7------7------|------9------9------|------9------9------|------9------9------|------9------9------|------9------9------|------8------8------|------9------9------|------7------7------|------9------9------|------7------7------|--------------------|--------------------|--------------------|--------------------|--------------------|--------------------|
------7------7------|------9------9------|------7------7------|------9------9------|------9------9------|------9------9------|------8------8------|------9------9------|------8------8------|------9------9------|------7------7------|------9------9------|--------------------|--------------------|--------------------|--------------------|--------------------|--------------------|
--9----9--9--9--9--9----|--------------------------|--------------------------|--9----9--9--9--9--9----|--------------------------|--------------------------|--9----9--9--9--9--9----|--------------------------|--------------------------|--7----7--7--7--7--7----|--------------------------|--------------------------|------------------------|--2-----2-----2-----2--3--|--4-----4-----4-----4--6--|------------------------|-----0-----0-----0--------|-----5-----5-----5--------|
--------------------------|--------------------------|--------------------------|--------------------------|--------------------------|--------------------------|--------------------------|--------------------------|--2-----2-----2-----2--3--|--4-----4-----4-----4--6--|-----0-----0-----0--------|-----5-----5-----5--------|
--------------------------|--------------------------|--------------------------|--------------------------|--------------------------|--------------------------|--------------------------|--------------------------|--2-----2-----2-----2--3--|--4-----4-----2-----2-----|-----0-----0-----0--------|-----5-----5-----3-----3--|
--------------------------|--------------------------|--------------------------|--------------------------|--------------------0--2--|--0-----0--2b---2b-2r0----|--------------0--2--------|-----2-----------------2--|--------0--2--------------|--------------------------|--0--3--------------------|--------------------------|
-----------------------------|------------------------|------------------------|-----------------------------|---------------------2--|----3--3--3--3----------|-------------0h2p0--2--0--2--|----0--2--4--2--0-------|----------------2--0----|----------0------------------|------------------------|------------------------|------0h2--------------------|------------------------|------------------------|--0h3------------------------|------------------------|------------------------|
------------------------|-------------------|------------------|------------------------|-------------------|------------------|------------------------|-------------------|------------------|----5--5--5--5p2p0------|-------------------|------------------|------------------------|-------------------|------------------|------------------------|--0----------------|------------------|
--6--------------------------------|--7--------------------------------|--5--------------------------------|--5--------------------------------|-----------------------------------|-----------------------------------|-----------------------------------|-----------------------------------|-----------------------------------|-----------------------------------|-----------------------------------|-----------------------------------|
--9--------7------------------------|--6--------7------------------------|--5--------5------------------------|--5--------5------------------------|------------------------------------|------------------------------------|------------------------------------|------------------------------------|------------------------------------|------------------------------------|------------------------------------|------------------------------------|
---------------------0--0--0--0--2--0--2--|---------------------0--0--0--0--0--0--0--|------------------------------------------|--2---------------------------------------|--2---------------------------------------|--0---------------------------------------|
---------------------0--0--0--0--6--0--2--|---------------------0--0--0--0--0--0--0--|------------------------------------------|--2---------------------------------------|--2---------------------------------------|--0---------------------------------------|
-------------------0--0--0--0--2p0h2p0h2----|-------------------0--0--0--0--0---0---0----|--------------------------------------------|--2-----------------------------------------|--2-----------------------------------------|--0-----------------------------------------|
---------------------0--0--0--0--2--0--2--|--------------------------|---------------------0--0--0--0--0--0--0--|--------------------------|------------------------------------------|--------------------0--2--|--2---------------------------------------|--------------0--2--------|--2---------------------------------------|--------0--2--------------|--0---------------------------------------|--0--3--------------------|
--------------------------|-----------------------------|--------------------------|-----------------------------|--0-----0--2b---2b-2r0----|-------------0h2p0--2--0--2--|-----2-----------------2--|----------0------------------|--------------------------|------0h2--------------------|--------------------------|--0h3------------------------|
------------------------|------------------------|-------------------------|---------------------2--|----3--3--3--3----------|-------------------------|----0--2--4--2--0-------|----------------2--0----|-------------------------|------------------------|------------------------|----5--5--5--5p2p0-------|------------------------|------------------------|-------------------------|------------------------|------------------------|----------------------0--|
-----------------------------|------------------------|------------------|-----------------------------|---------------------2--|------------------|-------------0h2p0--2--0--2--|----0--2--4--2--0-------|------------------|----------0------------------|------------------------|------------------|------0h2--------------------|------------------------|------------------|--0h3------------------------|------------------------|------------------|
Bass Guitar [for good measure]
G||------|------|------|------|------------------------|D||------|------|------|------|------------------------|A||------|------|------|------|------------------------|E||------|------|------|------|--1--1--1--1----1----1--|
------------------------|------------------------|------------------------|------------------------|------------------------|------------------------|--1--1--1--1----1----1--|------------------------|--1--1--1--1----1----1--|------------------------|--1--1--1--1----1----1--|------------------------|
------------------------|------------------------|------------------------|------------------------|------------------------|------------------------|------------------------|--1--1--1--1----1----1--|------------------------|--1--1--1--1----1----1--|------------------------|--1--1--1--1----1----1--|
------------------------|----------------------|-----------------------|------------------------|----------------------|-----------------------|--1--1--1--1----1----1--|-------------------0--|--1----0--1------1--1--|------------------------|--1------1------1-----|-----------------------|
----------------------|-----------------------|----------------------|----------------------|-----------------------|----------------------|-------------------0--|--1----0--1------1--1--|-------------------0--|--1------1------1-----|-----------------------|--1------1------1-----|
-----------------------|----------------------|-----------------------|-----------------------|----------------------|-----------------------|--1----0--1------1--1--|-------------------0--|--1----0--1------1--1--|-----------------------|--1------1------1-----|-----------------------|
--------------------------|--------------------------|--------------------------|--------------------------|--------------------------|--1--1--1--1--1--1--1--1--|--1--1--1--1--1--1--1--1--|--------------------------|
--------------------------|--------------------------|--------------------------|--------------------------|--------------------------|--1--1--1--1--1--1--1--1--|--1--1--1--1--1--1--1--1--|--------------------------|
--------------------------|--------------------------|--------------------------|--------------------------|--------------------------|--1--1--1--1--------------|--1--1--1--1--1--1--1--1--|--------------4--4--4--4--|
--------------------------|--------------------------|--------------1--1--1--1--|--------------------------|--------------------------|--1--1--1--1--------------|--1--1--1--1--------------|--------------4--4--4--4--|
--------------------------|--------------------------|--------------1--1--1--1--|--------------------------|--------------------------|--1--1--1--1--------------|--1--1--1--1--------------|--------------4--4--4--4--|
--------------------------|--------------------------|-------------------|--------------1--1--1--1--|--------------------------|-------------------|--------------------------|--1--1--1--1--------------|-------------------|--1--1--1--1--------------|--------------4--4--4--4--|--1----------------|
------------------|----------------------|-----------------------|------------------|----------------------|-----------------------|------------------|-------------------0--|--1----0--1------1--1--|------------------|--1------1------1-----|-----------------------|
----------------------|-----------------------|----------------------|----------------------|-----------------------|----------------------|-------------------0--|--1----0--1------1--1--|-------------------0--|--1------1------1-----|-----------------------|--1------1------1-----|
-----------------------|----------------------|-----------------------|-----------------------|----------------------|-----------------------|--1----0--1------1--1--|-------------------0--|--1----0--1------1--1--|-----------------------|--1------1------1-----|-----------------------|
--------------------------|--------------------------|--------------------------|--------------------------|--------------------------|--1--1--1--1--1--1--1--1--|--1--1--1--1--1--1--1--1--|--------------------------|
--------------------------|--------------------------|--------------------------|--------------------------|--------------------------|--1--1--1--1--1--1--1--1--|--1--1--1--1--1--1--1--1--|--------------------------|
--------------------------|--------------------------|--------------------------|--------------------------|--------------------------|--1--1--1--1--------------|--1--1--1--1--1--1--1--1--|--------------4--4--4--4--|
--------------------------|--------------------------|--------------1--1--1--1--|--------------------------|--------------------------|--1--1--1--1--------------|--1--1--1--1--------------|--------------4--4--4--4--|
--------------------------|--------------------------|--------------1--1--1--1--|--------------------------|--------------------------|--1--1--1--1--------------|--1--1--1--1--------------|--------------4--4--4--4--|
--------------------------|--------------------------|-------------------|--------------1--1--1--1--|--------------------------|-------------------|--------------------------|--1--1--1--1--------------|-------------------|--1--1--1--1--------------|--------------4--4--4--4--|--1----------------|
------------------|-----------------------------------|------------------|-----------------------------------|------------------|-----------------------------------|------------------|--1--------------------------------|
-----------------------------------|-----------------------------------|-----------------------------------|-----------------------------------|-----------------------------------|-----------------------------------|--1--------------------------------|--1--------------------------------|
-----------------------------------|-----------------------------------|-----------------------------------|--1--------------------------------|
-------------------------------------------------|-------------------------------------------------|----8--8--8--8--6--6--6--6-----------------------|----------------------------6--6--6--6--4--4--4--|
--------------------------------------------------|-----------------------------8--8--8--8--6--6--6--|-----8--8--8--8--6--6--6--6-----------------------|--4-----------------------------------------------|
--------------------------------------------------|--6-----------------------------------------------|-----8--8--8--8--6--6--6--6-----------------------|-----------------------------6--6--6--6--4--4--4--|
--------------------------------------------------|--------------------------|--------------------------------------------------|--------------1--1--1--1--|-----8--8--8--8--6--6--6--6-----------------------|--------------------------|--4--------------------------6--6--6--6--4--4--4--|--1--1--1--1--------------|
--------------------------|--------------------------|--------------------------|--------------1--1--1--1--|--1--1--1--1--------------|--------------------------|--------------4--4--4--4--|--1--1--1--1--------------|
--------------------------|--------------------------|--------------------------|--------------1--1--1--1--|--1--1--1--1--------------|--------------------------|--------------4--4--4--4--|--1--1--1--1--------------|
--------------------------|--------------------------|--------------------------|--------------1--1--1--1--|--1--1--1--1--------------|--------------------------|--------------4--4--4--4--|--1--1--1--1--------------|
--------------------------|-------------------|------------------|--------------------------|-------------------|------------------|--1--1--1--1--------------|-------------------|------------------|--------------4--4--4--4--|--1----------------|------------------|
-----------------------|-----------------------|-----------------------|-------3--1------------|-----------------------|-------3--1------------|---------------3-------|-----------------6--7--|---------------3-------|--1-----------------4--|--6----6----4----------|--1-----------------4--|
-----------------------|-----------------------|-----------------------|-----------------------|-------3--1------------|-----------------------|-----------------6--7--|---------------3-------|-----------------6--7--|--6----6----4----------|--1-----------------4--|--6----6----4----------|
-----------------------|-----------------------|--------------------------|-------3--1------------|-----------------------|--------------------------|---------------3-------|-----------------6--7--|--------------------------|--1-----------------4--|--6----6----4----------|--1--1--1--1--1--1--1--1--|
--------------------------|--------------------------|--------------------------|--3--3--3--3--3--3--3--3--|--1--1--1--1--1--1--1--1--|--------------------------|--------------------------|--------------------------|
--------------------------|--------------------------|--------------------------|--------------------------|--1--1--1--1--1--1--1--1--|--------------------------|--------------------------|--1--1--1--1--1--1--1--1--|
--------------------------|--------------------------|--------------------------|--3--3--3--3--3--3--3--3--|--1--1--1--1--1--1--1--1--|--------------------------|--------------------------|--------------------------|
--------------------------||--------------------------||--1--1--1--1--1--1--1--1--||--------------------------||
Tap to rate this tab
 
# A B C D E F G H I J K L M N O P Q R S T U V W X Y Z