Pearl Jam - Gremmie Out Of Control tab

#--------------------------------------------------------------------------#
#                "Gremmie Out Of Control" by Jimmie Haskell                #
#             As heard on the 2003 album "Lost Dogs" (Pearl Jam)           #
#--------------------------------------------------------------------------#

Track 12 Length: 2:25


Guitar 1: Standard Tuning (E A D G B E) distortion w/ slight gain
Guitar 2: 1 step down Dropped-C (C G C F A D) distortion w/o gain

*Try G1 with Light Gage Strings and G2 with Heavy to make those bends more accurate.

Sound check 0:00

G1 PM TP.\ TP.\ PM.......\|---------------------------------x------|---------------------------------||-------------------x-------------x------|--------------------3-3--------1-||---x---x---x---x---x---x-x-------x------|-----------------2--2-2-----0--0-||-x---x---x---x---x---x---x--------------|---------------0------0-----2--2-||-----------------------------x--------x-|-0-15/18\8-7\0--------------3--3-||---------------------------x---x----x---|-0-15/18\8-5\0-------------------|
Intro 0:09
G1 PM TP..\ TP..\|-----------------------------------||----x-----x-----x-x----------------||-x-----x-----x---------------------||-----------------------------------||------------------------15\13-10\7-||--------------------(0)-15\13--8\5-|
"One... two... five." G1
|---||------------------------------------------||---||-------------------------10br10-8-10----8-||---||-------------------------10br10-8-10----8-||---||--------10----10---------------------10---||-x-||-10-----10-10-10----8/10------------------||-x-||--8--11----11----11-----------------------|
G2 PM PM PM PM PM PM PM PM|---||----------------------------------------|||---||o--------------------------------------o|||-7-||---7-7-7-7--7-7-7-7--7-7-7-7--7-7-7-7---|||-7-||---7-7-7-7--7-7-7-7--7-7-7-7--7-7-7-7---|||-5-||o--5-5-5-5--5-5-5-5--5-5-5-5--5-5-5-5--o|||-0-||---0---0----0---0----0---0----0---0-----|| 8x
G1
|-10b11=(10)=(10)r10-8-----8-|------------------------------||-10b11======(10)r10-------8-|--------8~--------8~--------8-||----------------------10b---|-10fb~~----10fb~~----10fb~~---||----------------------------|------------------------------||----------------------------|------------------------------||----------------------------|------------------------------|
G1 PM PM|-8----11b12---8--------|--8----------|---------||----8------------8-11b-|--8-------8b-|----8----||-----------------------|----11-10-8b-|----8----||-----------------------|-------------|-10---10-||-----------------------|-------------|---------||-----------------------|-------------|---------|
G1
|------------------------------------------||---------8--------8--------8------------0-||-*10fb~~---10fb~~---10fb~~---10fb~~~~~~---||------------------------------------------||------------------------------------------||------------------------------------------|
Verse Rythm 0:24 G1
|-----------------------------------------------------|||o---------------------------------------------------o|||-----------------------------------------------------|||---10-10-10-10-10-10-10-10-10-10-10-10-10-10-10-10---|||o--10-10-12-10-10-10-12-10-10-10-12-10-10-10-12-10--o|||----8--8--8--8--8--8--8--8--8--8--8--8--8--8--8--8---|| 4x
Ed: "Every beach has a clown who thinks he knows it all..." Stone: "Hang-ten outta Santa Fe when the surf comes up tomorrow let's go!" Ed: "He's always practicing his Cowabunga call..." Stone: "Cow-a-Bunga!" G1
|-----------------------------------------------------|||o---------------------------------------------------o|||---10-10-10-10-10-10-10-10-10-10-10-10-10-10-10-10---|||---10-10-12-10-10-10-12-10-10-10-12-10-10-10-12-10---|||o---8--8--8--8--8--8--8--8--8--8--8--8--8--8--8--8--o|||-----------------------------------------------------|| 2x
G2
|-------------------------------------|||o----8---8---8---8---8---8---8---8--o|||---7-7-7-7-7-7-7-7-7-7-7-7-7-7-7-7---|||---5-5-5-5-5-5-5-5-5-5-5-5-5-5-5-5---|||o--5-5-5-5-5-5-5-5-5-5-5-5-5-5-5-5--o|||---5---5---5---5---5---5---5---5-----|| 2x
Ed: "But the menace scrambles when the big wave starts to roll..." Mike: "Shwhewh." Chorus Rythm 0:43
G1 TP......\|-5-----5------|-----------3----|-----0----0--------------||-5-----5------|-8--8------6----|-3-----3----3------------||-5-----5------|-7--7---5--5--5-|-2-----2----2------------||-7--7--7--7-7-|-5--5---3--3--3-|-0-----0----0------------||----7-----7-7-|-5--5---3-----3-|-------0----0--12s=====0-||----5-----5-5-|----------------|-------------------------|
G2 TP......\|--------------|-----------5----|-----2----2--------------||-12-----------|---10---8--8--8-|-5-----5----5------------||-11---11------|-9--9---7-----7-|-4-----4----4------------||--9----9--9-9-|-7--7---5-----5-|-2-----2----2------------||--9----9--9-9-|-7--7---5-----5-|-2-----2----2------------||--9----9--9-9-|-7--7---5-------|-2-------------16s=====0-|
Ed: "Cause' there's nothin' worse than a gremmie outta control." G1
|----0----0---|----0----0---|----3---3---|-4--4--4--4--4--4-||-3----3----3-|-3----3----3-|----3---3---|-4--4--4--4--4--4-||-2----2----2-|-2----2----2-|-3----3---3-|-5--5--5--5--5--5-||-0----0----0-|-3----3----3-|------------|-6--6--6--6--6--6-||-------------|-0-----------|------------|------------------||-------------|-------------|------------|------------------|
G2
|----2----2---|----2----2---|----5---5---|-------------------||-5----5----5-|-5----5----5-|----5---5---|-11-11-11-11-11-11-||-4----4----4-|-4----4----4-|-5----5---5-|-10-10-10-10-10-10-||-2----2----2-|-5----5----5-|-7----7---7-|--8--8--8--8--8--8-||-2----2----2-|-2----2----2-|------------|--8--8--8--8--8--8-||-2----2----2-|-------------|------------|--8--8--8--8--8--8-|
Ed: "Gremmie out of control, gremmie out of control..." G1
|-5--(5)--5--(5)-x--6--(6)--3--(3)----0-----------|-3-3-3-3-3-3-||-6--(6)--6--(6)-x--6--(6)--3--(3)-x--3--3--------|-3-3-3-3-3-3-||-5--(5)--7--(7)-x--7--(7)--0--(0)-x--2--2--2-2-2-|-4-4-4-4-4-4-||-7--(7)--7--(7)----8--(8)--0--(0)-x--0-----0-0-0-|-5-5-5-5-5-5-||-8--(8)--5--(5)----8--(8)--x--(x)----------------|-5-5-5-5-5-5-||-------------------6--(6)--3--(3)----------------|-3-3-3-3-3-3-|
G2 PM PM PM PM PM|-------------------------------------2-----------|----------------||-8---8---8---8------------10--10--8--5--5--------|-10-10-10-10-10-||-7---7---9---9-------------9---9--7--4--4--4-4-4-|--9--9--9--9--9-||-5---5---9---9---10---10---7---7--5--2-----2-2-2-|--7--7--7--7--7-||-5---5---7---7---10---10---7---7--5--2-----------|--7--7--7--7--7-||-5---5-----------10---10---7---7--5--2-----------|--7--7--7--7--7-|
All: "There's nothin' worse than a gremmie outta control." 2nd Verse 1:01 (repeat verse rythm) Ed: "The kids all know that a gremmie's talk is cheap." Stone: "Ride the Hula-han over the Pipeline. Bonzai to the saddle bowl!" Ed: "They just try to ignore this ugly creep." Stone: "Cow-a-Bunga!" Ed: "His board is always full of dings cuz' he's always doin' stupid things." Chorus 1:21 (repeat chorus rythm) Ed: "And there's nothin' worse than a Gremmie Outta Control." All: "Gremmie out of control, gremmie out of control..." All: "There's nothin' worse than a gremmie outta control." Solo Rythm 1:39 G1
|-------------------------------------------------||-------------------------------------------------||-------------------------------------------------||-10-10-10-10-10-10-10-10-10-10-10-10-10-10-10-10-||-10-10-12-10-10-10-12-10-10-10-12-10-10-10-12-10-||--8--8--8--8--8--8--8--8--8--8--8--8--8--8--8--8-|
G2
|-------------------------------------------------||-------------------------------------------------||-------------------------------------------------||-------------------------------------------------||---------------------------------0---0-----------||--0--------0--0--4~------4--4-----------5--4--0--|
G1 PM PM|-10b11(11)-------8-----8-8-----------------------||-10b11(11)-10b11-8--10-8-8--8---------10p8-10-8--||-----------10b12----10-----10b12r10p8-10-8-10-8--||-------------------------------------------------||-------------------------------------------------||-------------------------------------------------|
G2 PM PM PM PM PM PM PM PM|----------5-------------------------||----------7-------------------------||-7-7-7-7--7-7-7-7--7-7-7-7--7-7-7-7-||-7-7-7-7--7-7-7-7--7-7-7-7--7-7-7-7-||-5-5-5-5----5-5-5--5-5-5-5--5-5-5-5-||-0---0--------0----0---0----0---0---|
G1
|-------------------------------------------------||-------------------------------------------------||-10-10-10-10-10-10-10-10-10-10-10-10-10-10-10-10-||-10-10-12-10-10-10-12-10-10-10-12-10-10-10-12-10-||--8--8--8--8--8--8--8--8--8--8--8--8--8--8--8--8-||-------------------------------------------------|
G2
|-------------------------------------------------||-------------------------------------------------||-------------------------------------------------||-------------------------------------------------||-------------------------------------------------||-5----5--5--9---xp9--10/12--12--12--10---9--7\-0-|
G1
|--------------8---------------------------------||--------------8---------------------------------||-5-5-5-10fb~~---10fb~~-0-10fb~~-0-10fb~~~-0-----||-5-5-7-----------------0--------------------(0)-||--------------------------------------------(0)-||------------------------------------------------|
G2 PM PM PM PM PM PM PM PM|------------------------------------||------------------------------------||-7-7-7-7--7-7-7-7--7-7-7-7--7-7-7-7-||-7-7-7-7--7-7-7-7--7-7-7-7--7-7-7-7-||-5-5-5-5--5-5-5-5--5-5-5-5--5-5-5-5-||-0---0----0---0----0---0----0---0---|
G1
|------------------------------------------------||-------------------------10---------------------||-10-10-10-10-10-10-10-10------------------------||-10-10-12-10-10-10-12-10------------10----------||--8--8--8--8--8--8--8--8---------10----10-12-10-||----------------------------8-11----------------|
G2
|------------------------------------------------||------------------------------------------------||------------------------------------------------||------------------------------------------------||------------------------------------------------||-5/7--7---7--7----7--7--6--5~--5p3--5b6~~--3~---|
G1
|----------------------|----------------------||-10b11r10-8-10p8------|-10-10-10--9--9--8--7-||-10b11r10-8-10p8-10-8-|-10-10-10--9--9--8--7-||-----------------10-8-|-10-10-10--9--9--8--7-||----------------------|--8--8--8--7--7--6--5-||----------------------|----------------------|
G2
|----------------------|-15-15--15-14-14-13-12-||----------------------|-15-15--15-14-14-13-12-||----------------------|-----------------------||--------------3-------|-----------------------||-3/5-5--3--5-----5--3-|-----------------------||----------------------|-----------------------|
Chorus 1:58 (repeat chorus rythm once more and end of chorus rythm beginning with G# strum pattern 3 times until end.) All:"Gremmie outta control, gremmie outta control... All:"There's nothing worse than a gremmie outta control" x3 Tabulature Legend -------------------------------------------------- - = string (also serves as crude time marker: time on string) # = frett (or equivalent pitch on string) h = hammer-on p = pull-off tr = trill (rapid, consecutive hammer-ons and pull-offs) b = bend (to indicated frett or 1/4 step if not specified) fb = full bend (1 step or 2 frett pitches) hb = half bend (1/2 step or 1 frett pitch) pb = pre-bend (bend before striking) = = hold bend or let note ring with substantial sustain r = release bend (to indicated frett) ~ = vibrato (shallow, rapid bending) / = slide up (if not indicated where, then to and from anywhere) \ = slide down (if not indicated where, then to and from anywhere) s = legato slide (sound all notes in slide) S = shift slide (sound only beginning and end notes by shifting quickly) () = muted note (indicates notes muted after striking them) x = muted slash (pluck or "rake" string in a percussion manner) x\ = pick scrape (scratch pick across string surface) Rythm Notations PM = palm mute (mute string(s) while striking them) TP = tremelo pick (pick very rapidly) T = tap (with finger or pick) \n/ = tremelo bar dip where n= amount to dip \n = tremelo bar down where n= how far /n = tremelo bar up where n= how far /n\ = tremelo bar raise (don't try without a Floyd Rose Tremelo Bridge!) We need more groovy songs like this one! Whale song comming soon... Questions, Comments? UnsuperSmith@gmail.com
Tap to rate this tab
 
# A B C D E F G H I J K L M N O P Q R S T U V W X Y Z