Peter Ilyich Tchaikovsky – Op 31 - Slavonic March In Bbm tab

Slavonic March in B-flat minor, Op 31 (Marche Slave) - Tchaikovsky

tabbed by Simon Ghyselincks - sghyselincks@gmail.com - July 2010

The first few bars of this piece have 3 ghost notes played
before the 4th note each time.

The section that follows has a lot of rests in it and should
be played like the sound of the footsteps of a marching soldier.

Eventually the gaps get filled in giving a more flowing feel, refer
to the attached MIDI file for reference.


E||--------------------------|--------------------------|B||--------------------------|--------------------------|G||--------------------------|--------------------------|D||--------------------------|--------------------------|A||--------------------------|-----0--------------------|E||--------------------------|0h2h4---------------------|
--------------------------|--------------------------|--------------------------|--------------------------|--------------------------|--------------------------|--------------------------|--------------------------|-----0--------------------|--------------------------|0h2h4---------------------|0h2h4h5----5-----5-----5--|
|---0------------------------|---------------------------||---1-----------4-----1p--0--|--------------------0h--1--||*--------------------1------|--2------------------------||*--2-----2-----4------------|--2-----2-----2-----2------||---0-----0-----0-----0------|--0-----0-----0-----0------||----------------------------|---------------------------|
--0-----0------------------|--------------------------|--1-----1-----4-----1p--0--|--------------------------|--------------------1------|--2-----------------------|--2-----2-----4------------|--2-----2-----2-----2-----|--0-----0-----0-----0------|--0-----0-----0-----0-----|---------------------------|--------------------------|
--------------------------|---------------------------|--0-----3-----1-----0-----|------------0--1-----------|--------------------------|--2p--1--2-----------2-----|--3-----3-----3-----3-----|--2------2-----2-----2-----|--0-----0-----0-----0-----|--0------0-----0-----0-----|--------------------------|---------------------------|
--0--0--------------------|--------------------------|--------4-----1-----0-----|--0-----------------------|-----------------------2--|--1-----1-----1-----1-----|--4-----4-----4-----4-----|--2-----2-----2-----2-----|--0-----0-----0-----0-----|--0-----0-----0-----0-----|--------------------------|--------------------------|
--0------------------------|---------------------------|--1-----------4-----1p--0--|--------------------0h--1--|--------------------1------|--2------------------------|--2-----2-----4------------|--3-----3-----2-----0------|--0-----0-----0-----0------|--0-----0-----0-----0------|---------------------------|---------------------------|
Rests stop here.--0-----0------------------|-----------------------|----------------------|--1-----1-----4-----1p--0--|-----------------------|--0----3----1----0----|--------------------1------|--2--------------------|--1----4----2----1----|--2-----2-----4------------|--3----3----2----0-----|--0----3----2----0----|--0-----0-----0-----0------|--0----0----0-------3--|--0----0----0----0----|---------------------------|-----------------5-----|----------------------|
-------------------------|--0--0------------------|----------------------|------------0--1---------|--1--1--4----1----0-----|--0-------------------|--2p--1--2-----2----2----|-------------2-------2--|--1----1----1----1----|--2---------3--2----2----|--2-----2----4----4-----|--2----2----2----2----|--0------0-----0----0----|--0-----0----0----0-----|--0----0----0----0----|-------------------------|------------------------|----------------------|
-0-----------------------|---------------------------|--1-----1-----4-----1--0--|---------------------0--1--|--------------------2--1--|--2------------------------|-----2-----2-----4--------|--------0------------3--2--|--0-----------0-----------|--0--0-----3--0h--3--------|--------------------------|---------------------------|
-0-----0-----------------|---------------------------|--1-----1-----4-----1--0--|---------------------------|--------------------2--1--|--2------------------------|-----2-----2-----4--------|--------0------------3--2--|--0-----------0-----------|--0--0-----3--0h--3--------|--------------------------|---------------------------|
--------------------------|--------------------------|--0-----3-----1-----0-----|-----------0--1-----------|--------------------------|--2--1--2-----2-----2-----|-----2--3--2-----2--3--2--|-----2--3--2-----2--3--2--|--0-----------0-----------|--0-----------0-----------|--------------------------|--------------------------|
--0--0--------------------|----------------------------|--1--1--4-----1-----0-----|----------------------------|--------2-----------2--2--|--1-------------------------|-----2-----2-----2-----2--|--2-----3p--2--------3p--2--|--0-----------0-----------|-----2------------2---------|--------------------------|--0------------0------------|
|--3--|----------------1-----0-----|-------------------3----|-------------------0-----3--|--1-----------0---------|--2----------------0-----0--|--0--0-----0--0----0----|--0----0--0--0--0-----------|--2-----2-----2----2----|--0-------------------------|--------3---------------|--1-------------------3-----|--0-----------0---------|
|--3--|--1p--0--1--------------3p--1--|--0-----------------------|--3------3-----------0------0--|--1--------------0--1-----|--2------2-----------0------0--|--0--2--0--2--3--------0--|--0------0--0--0--0------------|--2-----------------------|-------------------------------|--3--0-----0--1--2--3-----|------------------------3------|--------3--------------3--|
|--3--|----------------1-----0-----|-------------------3----|-------------------0-----3--|--1-----------0---------|--2----------------0-----0--|--0--0-----0--0----0----|--0----0--0--0--0-----------|--2-----2-----2----2----|--0-------------------------|--------3---------------|--1-------------------3-----|--0-----------0---------|
|Ending 1________________________________________________| |--3--| |--3--|--1p--0--1-----------5--3p--1-|-0------------------------||--3------3--------------------|-0------------------------||--2------2-----------2--0-----|-1-----------------------*||--0------0--0--0--0-----------|-2------------------2----*||------------------------------|--------------------------||------------------------------|------0--0--0--0----0-----||
|Ending 2__________________________________________| |--3--|--1p--0--1-----------5--3-----|--------------------|--3------3--------------0--0--|--1-----------------|--2------2-----------2--0-----|--0-----------------|--0------0--0--0--0-----------|--2-----------------|------------------------------|--3-----------------|------------------------3-----|--------------------|
Tablature Legend ---------------- h - hammer on p - pull off
Please rate this tab:
x1.0