Phantom Planet – I Was Better Off tab

I was Better Off - Phantom Planet is Missing

-VERSE-
1° guitar:
(Alex)
                                                          
D#||--------------------------|--------------------------|A#||--------------------------|--------------------------|F#||--------2--------0--------|--------2--------0--------|C#||-----------0h-2-----0h-2--|-----------0h-2-----0h-2--|G#||--0--0--------------------|--0--0--------------------|D#||--------------------------|--------------------------|
--------------------------|--------------------------|--------------------------|--------------------------|--------2--------0--------|--------2--------0--------|-----------0h-2-----0h-2--|-----------0h-2-----0h-2--|--0--0--------------------|--0--0--------------------|--------------------------|--------------------------|
--------------------------|--------------------------|--------------------------|--------------------------|--------2--------0--------|--------2--------0--------|-----------0h-2-----0h-2--|-----------0h-2-----0h-2--|--0--0--------------------|--0--0--------------------|--------------------------|--------------------------|
--------------------------|--------------------------|--------------------------|--------------------------|--------2--------0--------|--------2--------0--------|-----------0h-2-----0h-2--|-----------0h-2-----0h-2--|--0--0--------------------|--0--0--------------------|--------------------------|--------------------------|
2° guitar:(Darren)D#||--5----------------|A#||--5----------------|F#||--6----------------|C#||--7----------------|G#||--7----------------|D#||--5----------------|repeat...
3° guitar: (Jacques) starts in the third time.
D#||------|------|-----3--5--5--3--------|--2--------0--------|A#||------|------|--5--------5--5--------|--3p-------1--------|F#||------|------|-----------------------|--------------------|C#||------|------|-----------------------|--------------------|G#||------|------|-----------------------|--------------------|D#||------|------|-----------------------|--------------------|
-CHORUS- 1° guitar:
--7--7--7--7--7--7--7--6--|--5--5--5--5--5--5--5--5--|--9--9--9--9--9--9--9--8--|--7--7--7--7--7--7--7--7--|--7--7--7--7--7--7--7--6--|--5--5--5--5--5--5--5--5--|--9--9--9--9--9--9--9--8--|--7--7--7--7--7--7--7--7--|--7--7--7--7--7--7--7--6--|--5--5--5--5--5--5--5--5--|--------------------------|--------------------------|
--5--------5--------|--1--------1--------|--0--------0--------|--5--------5--------|--1--------1--------|--0--------0--------|--6--------6--------|--1--------1--------|--1--------1--------|--7--------7--------|--3--------3--------|--2--------2--------|--7--------7--------|--3--------3--------|--2--------2--------|--5--------5--------|--1--------1--------|--0--------0--------|
----------------------|-------------------|----------------------|-------------------|----------------------|-------------------|----------------------|-------------------|--0----2----3----5----|--7----------------|----------------------|-------------------|
2° guitar:
--7--7--7--7--7--7--7--6--|--5--5--5--5--5--5--5--5--|--5----------------|--9--9--9--9--9--9--9--8--|--7--7--7--7--7--7--7--7--|--5----------------|--7--7--7--7--7--7--7--6--|--5--5--5--5--5--5--5--5--|--6----------------|--9--9--9--9--9--9--9--8--|--7--7--7--7--7--7--7--7--|--7----------------|--7--7--7--7--7--7--7--6--|--5--5--5--5--5--5--5--5--|--7----------------|--------------------------|--------------------------|--5----------------|
--1-----------------------|--0-----------------------|-------------------|--1-----------------------|--0-----------------------|--2----------------|--1-----------------------|--0-----------------------|--2h---------------|--3-----------------------|--2-----------------------|-------------------|--3-----------------------|--2-----------------------|-------------------|--1-----------------------|--0-----------------------|--3----------------|
--------------------------|--------------------------|-------------------|--3-----------------------|--2-----------------------|-------------------|--2h----------------------|--2-----------------------|--1----------------|--------------------------|--2-----------------------|-------------------|--------------------------|--------------------------|--2----------------|--3-----------------------|--------------------------|-------------------|
-BRIDGE- 1° guitar:
------------------------|-------------------------|------------------------|------------------------|-------------------------|------------------------|------------------------|-------------------------|------------------------|-------7---------7------|------7---------7h-9p-7--|-------7---------7------|--7-------7---8-----8---|--9------9p-8------------|--7-------7---8-----8---|------------------------|-------------------------|------------------------|
--------------------------|--------------------------|--------------------------|-----7-----7-----7-----7--|--9-----9-----9-----9-----|--------------------------|
3° guitar:
-------5---------5------|-----5------5h7-----5---|--5-------5---6-----6---|--7-----7p6-------------|------------------------|------------------------|------------------------|------------------------|------------------------|------------------------|------------------------|------------------------|
-------5---------5------|-----5-----5-----5-----5|--5-------5---6-----6---|--7-----7-----7-----7---|------------------------|------------------------|------------------------|------------------------|------------------------|------------------------|------------------------|------------------------|
Back to the CHORUS. BRIDGE. Repeat VERSE. ************************************ | h hammer-on | p pull-off ************************************
Please rate this tab:
x1.0