Shining tab with lyrics by Phil Wickham - Easy chords and tabs for guitar

Phil Wickham – Shining tab

it pretty much repeats this the whole song :)

0-0-0-0-0-0-0-0-0-0-0-0-3-3-3-----|----------------------------------|----------------------------------|----------------------------------|----------------------------------|----------------------------------|
------------------------3-3-3-----|0-0-0-0-0-0-0-0-0-0-0-0-----------|----------------------------------|----------------------------------|----------------------------------|----------------------------------|
----------------------------------|1-1-1-1-1-1-1-1-1-1-1-1-3-3-3-----|----------------------------------|----------------------------------|----------------------------------|----------------------------------|
----------------------------------|1-1-1-1-1-1-1-1-0-0-0-0-0-0-0-0---|----------------------------------|----------------------------------|----------------------------------|----------------------------------|
--------0---------------0---------|0-1-0-1---1-0-1-0-1-0-1---1-0-1---|----------------------------------|----------------------------------|----------------------------------|----------------------------------|
--------0---------------0---0-1---|0-1-0-1---1-0-1-0-1-0-1---1-------|----------------------------------|----------------------------------|----------------------------------|----------------------------------|
0-0-0-0-0-0-0-0-0-0-0-0-3-3-3-----|----------------------------------|----------------------------------|----------------------------------|----------------------------------|----------------------------------|
------------------------3-3-3-----|0-0-0-0-0-0-0-0-0-0-0-0-----------|----------------------------------|----------------------------------|----------------------------------|----------------------------------|
----------------------------------|1-1-1-1-1-1-1-1-1-1-1-1-3-3-3-----|----------------------------------|----------------------------------|----------------------------------|----------------------------------|
----------------------------------|1-1-1-1-1-1-1-1-0-0-0-0-0-0-0-0---|----------------------------------|----------------------------------|----------------------------------|----------------------------------|
Please rate this tab:
x1.0