Phil Wickham - I Will Wait For You There tab

I WILL WAIT FOR YOU THERE
As recorded by Phil Wickham

Transcribed by TJ Brumme
	

Words and Music by Phil Wickham

Q=95 6/4 Gtr I|-----------------------------------------------------------||---------10-------------10--------------7-----5-----7------||------11---------11-h12----11---------7-------7-----7------||----0----------0----------------0---0-------0-----0-----0--||-----------------------------------------------------------||-10---------10----------------9---7-------7-----7-----7----|
|-----------------------------------------------------------||----------10-------------10--------------7-----------5-----||-------11---------11-h12----11-----------7-----------6-----||-----0----------0----------------0---0-------0---0-------0-||-----------------------------------------------------------||-/10---------10----------------9---7---7---7---5---5---5---|
|-------------------------------------------------------------||----------10------10------10------10-------7-----7---------5-||-------11---------12------11------11-----7-------7---------6-||-----0----------0-------0-------0------0-------0-----0---0---||-------------------------------------------------------------||-/10---------10------10------9\------7-------7-----7---5-----|
|-------------------------------------------------------------||----------10------10------10-----10--------7---------7-----5-||-------11-11------12------11-----11------7-7---------7-----6-||-----0----------0-------0------0-------0-------0---0-----0---||-------------------------------------------------------------||-/10---------10------10------9------\7-------7---7-----5-----|
|------------------------------------------------------------------------------||-------3-----------3-------------10------------5-----------3-----------3------||-----4-------4----------------11-------------6-----------4-------4-----4------||---0-------0-----0-----0----0----------0---0-------0---0-------0-----0-----0--||------------------------------------------------------------------------------||-3-------3-----3-----3---10---------10---5-------5---3-------3-----3-----3----|
1.||----------------------------------------------------------||--|||o---------10------10----------10-------7---------7-----5-o||--|||-------11---------11----------11-----7-7---------7-----6--||--|||-----0----------0-------0---0------0-------0---0-----0----||--|||o--------------------------------------------------------o||--|||--10---------10------10---9------7-------7---7-----5------||--|
2.|---------------------------------------------------------------------------------||-------3-----------3--------------10------------5-----------3-----------3--------||-----4-------4-----4-----------11-------------6-----------4-------4-----4--------||---0-------0-----0------0----0----------0---0-------0---0-------0-----0-----0----||---------------------------------------------------------------------------------||-3-------3-----3-----3/---10---------10---5-------5---3-------3-----3-----3------|
||-------------------------------------------------------||--|||o---------10------------3-----------7-----------5-----o||--|||-------11-------------4-----------7-----------6--------||--|||-----0----------0---0-------0---0-------0---0-------0--||--|||o-----------------------------------------------------o||--|||--10---------10---3-------3---7-------7---5-------5----||--|
|-----------------------------------------------------------------------||---------10------------------------7-----------3-------------10--------||------11-------------4-----6-----7-----------4------------11-----------||----0----------0---0-----0-----0-------0---0-------0----0----------0---||-----------------------------------------------------------------------||-10---------10---3-----5-----7-------7---3-------3---10---------10-----|
|-------9-----------------------------------------||-------------------7-----------5-----------5-----||-----9-----------7-----------6-------6-----6-----||---8-------8---0-------0---0-------0-----0-----0-||-9-------9---------------------------------------||-------------7-------7---5-------5-----5-----5---|
D|-----------------------------------------||-10---10---10-----10-10---7---7---5---7--||-11---11---11-h12-11-11---7---7---7---7--||--0----0----0------0--0---0---0---0---0--||-----------------------------------------||-10---10---10-----10--9---7---7---7---7--|
|-------------------------------------||-10---10---10---10---7---7\---5---5--||-11---11---12---11---7---7\---6---6--||--0----0----0----0---0---0----0---0--||-------------------------------------||-10---10---10---10---7---7\---5---5--|
|-------------------------------------||-10---10---10---10----7---7---7---7--||-11---11---11---11----7---7---7---7--||--0----0----0----0----0---0---0---0--||-------------------------------------||-10---10---10----9\---7---7---7---7--|
|-------------------------------------------------------||-10---10---10---10----7---7\---5---5----3---3---3---3--||-11---11---11---11----7---7\---6---6----4---4---4---4--||--0----0----0----0----0---0----0---0----0---0---0---0--||-------------------------------------------------------||-10---10---10----9\---7---7\---5---5\---3---3---3---3--|
D/A Dsus2/A G|------------------------------------------------||-3---3---3---3---3---3---3---3---3---3---3---3--||-2---2---2---2---4---4---4---4---2---2---4---4--||-4---4---2---2---0---0---0---0---4---4---0---0--||-0---0---0---0-------------------0---0----------||-----------------3---3---3---3-----------3---3--|
Bm|------------------------------------------||-3---3---3---3---3---3---3---3---3---3----||-4---4---2---2---2---2---4---4---4---4----||-0---0---2---2---4---4---0---0---0---0----||-2---2---0---0---0---0-----------2---2----||-------------------------3---3------------|
|------------------------------------------------||-3---3---3---3---3---3---3---3---3---3---3---3--||-2---2---2---2---4---4---2---2---4---4---2---0--||-2---2---4---4---0---0---0---0---0---0---4---4--||-0---0---0---0-----------2---2-----------0---0--||-----------------3---3-----------3---3----------|
|-9-9-9-9-9-9-----------------------------------------||-0-0-0-0-0-0-7---7---5---5---3---3--3-3---3---3---3--||-9-9-9-9-9-9-7---7---6---6---2---2--2-4---4---4---4--||-8-8-8-8-8-8-0---0---0---0---4---4--4-0---0---0---0--||-9-9-9-9-9-9-----------------0---0--0---------2---2--||-------------7---7---5---5------------3---3----------|
|-----------------2-2-2------------------------------||-3---3---3---3---3-3-3-3-3-3-3---3-----------3---3--||-2---2---2---2---2-2-2-2-2-2-2---2---2---2---4---4--||-2---2---4---4---0-0-0-4-4-4-4---4---2---2---0---0--||-0---0---0---0---0-0-0-0-0-0-4---4---2---2----------||---------------------------------------------3---3--|
|---------9-9-9-9-9-9-------------||-3---3---0-0-0-0-0-0-7------5----||-4---4---9-9-9-9-9-9-7------6----||-0---0---8-8-8-8-8-8-0------0----||-2---2---9-9-9-9-9-9-------------||---------------------7------5----|
|-----------------------------------------------------------||---------10---------------------------7-----7-----7--------||------11--------------11-----11-----7-------7-----7--------||----0----------0----0------0------0-------0-----0-----0----||-----------------------------------------------------------||-10---------10---10------9------7-------7-----7-----7------|
|----------------------------------------------------------------||---------10-------------10--------------------------------10----||------11---------11-h12----11---------7-----6-----4-----6-11----||----0----------0----------------0---0-----0-----0-----0----0----||----------------------------------------------------------------||-10---------10----------------9---7-----5-----3-----5-----10----|
** Generated using Power Tab Editor by Brad Larsen: The Official Power Tab Web Site
Tap to rate this tab
 
# A B C D E F G H I J K L M N O P Q R S T U V W X Y Z