Phish - Llama tab version 2

Tempo = 155
Electric Guitar

Legend
L - tied note
x - dead note
h - hammer on/pull off
b - bend
s - slide
~ - vibrato
g - ghost note
> - accentuated note
t - trill
M - palm mute
. - staccato
P - popping (bass)
S - slapping (bass)
+ - tapping
W - wide vibrato
< - fade in
w - whammy bar
= - tremolo picking
v - brush up
^ - brush down
V - pick stroke up
n - pick stroke down

NOTE: Some bends are filled in, very few of the hammer-ons and pull-offs, but I can't be
bothered to tab all the bends and hammer-ons and pull-offs. But, the notes (positive
they're accurate as possible) are there and you guys can figure small nuances as I 
mentioned above out. Also a few notes toward the end, I couldn't really figure out the rhythm but
you guys can also do that by ear. Enjoy.

E |--12----------------------------------------------------11----10----9L----9-----|B |--------------------------------------------------------------------------------|G |--------------------------------------------------------------------------------|D |--------------------------------------------------------------------------------|A |--------------------------------------------------------------------------------|E |--------------------------------------------------------------------------------|
------------------------------6--------7--------8--------9----------|--------------------------------------------------------------------|--------------------------------------------------------------------|--------------------------------------------------------------------|--------------------------------------------------------------------|--------------------------------------------------------------------|
--10------------------------------------------------|--------7-----------------------7-----7-------------|--------------------------------------------10-9----|----------------------------------------------------|----------------------------------------------------|----------------------------------------------------|
--------------6-----------------------------------------------------------------|--------------------------7-----------------------------------------------------|--8-----------------------------------8-----------------------------------------|--------------------------------------------------9-----------------------------|--------------------------------------------------------------10----------9-----|--------------------------------------------------------------------------------|
--------------------------------------------------------------------|--------------------------------------------------------------------|--------------------------------------------------------------------|--------------------------------------------------------------------|---------------------8h-------9-------------------------------------|------------------------------------------------8L------------------|
----------------------------------------------------|----------------------------------------------------|----------------------------------------------------|----------------------------------------------------|----------------------------------------------------|--8-----------------------------------7--8--9--10---|
----------------------------------------------------|-----------------------------------6--5--6--7--8----|-----------------------7--6-------------------------|-----------8h-7-------------------------------------|----------------------------------------------------|--11------------------------------------------------|
----------------------------------------------------------------------------|--9-------------------------------------------------------------------------|----------------------------------------------------------------------------|-----------7L----------------------------------7--------x-----6-----7-------|----------------------------------------------------------------------------|----------------------------------------------------------------------------|
--------------------------------------------------------------------------------|--------------------------8-----------------------------------------------7-----|--------------------------------------------------------------------------------|--8-----------------------------------------------5-----------------------------|--------------------------------------------------------------------------------|--------------------------------------------------------------------------------|
--------------------------------------------------------------------|--------------------------------------------------------------------|--------------------------------------------------------------------|---5h-------4-----------------3L------------------------------------|--------------------------------------------------------------------|--------------------------------------------------------------------|
----------------------------------------------------|--------------------------------------7L------------|--------------------------4--5--6--7----------------|--3-----4-----4--5--6--7----------------------------|----------------------------------------------------|----------------------------------------------------|
----------------------------------------------------|----------------|-------|--7-------------------------------------------------|-----------6L---|--6L---|--------------------------5--6--7--8--9L------------|--9-------------|-------|----------------------------------------------------|----------------|-------|----------------------------------------------------|----------------|-------|----------------------------------------------------|----------------|-------|
----------------------------------------------------|--6L----------------------6--5----------------------|--------------------------------------------7--8----|--------------------------------7--8--9-------------|----------------------------------------------------|----------------------------------------------------|
----------------------------------------------------|----------------------------------------------------|--9-----------------------------------------7--8----|--------------------------------7--8--9-------------|--------5--6--7-------------------------------------|--------------------6-------------------------------|
----------------------------------------------------|----------------------------------------------------|--9-----------------------------------7--8--9-------|--------------------------0--8--0-------------------|--------5--6--7-------------------------------------|--------------------6-------------------------------|
----------------------------------------------------|----------------------------------------------------|--------------------------------------7--8--9-------|-----------------------7--8--0----------------------|--5--6--7-------------------------------------------|--------------6-------------------------------------|
----------------------------------------------------|----------------------------------------------------|----------------------------------------------------|----------------------------------------------------|--5--6--7-------------------------------------------|--------------6-----------6-----7L------------------|
----------------------------|----------------------------|----------------|----------------------------|----------------------------|----------------|----------------------------|----------------------------|----------------|----------------------------|----------------------------|----------------|----------------------------|----------------------------|----------------|--7L----------7--8L---------|--8L----------8--9L---------|--9s-2L---------|
----------------------------------------------------|----------------------------------------------------|----------------------------------------------------|----------------------------------------------------|----------------------------------------------------|--2L----------------------2-----3--4--5L------------|
-----------------------------------------5L---------|--5L---|--5L---|----------------------------------------------------|-------|-------|----------------------------------------------------|-------|-------|----------------------------------------------------|-------|-------|----------------------------------------------------|-------|-------|--5L----------------------------------5-------------|-------|-------|
--5L----------5--xL-xs----------15L-----------------|--15L--|--15L--|--15L--|--------------------------------16L-----------------|--16L--|--16L--|--16L--|----------------------------------------------------|-------|-------|-------|----------------------------------------------------|-------|-------|-------|----------------------------------------------------|-------|-------|-------|----------------------------------------------------|-------|-------|-------|
--15L---------15------------|--16L---------16-x--x--20L--|----------------------------|----------------------------|----------------------------|----------------------------|
--------------------------------------17------------|--20----------------------20b------------20-17------|-----------------------------------------------19---|----------------------------------------------------|----------------------------------------------------|----------------------------------------------------|
----------------------------------------------------|--17------------------------------------------------|-----19L19----------------19-19L19------------------|----------------------------------------------------|----------------------------------------------------|----------------------------------------------------|
----------------------------------------------------|----------------------------------------------------|--------------------------17-19---------------------|--------17-19-------17-19-------------------17-19---|--17-19-------17-19-------------------17-19---------|----------------------------------------------------|
--------------------------------------------------------------------------------|--------------------------------------------------------17-------19-------------|--17----19----------17----------------19----------------------------------------|--------------------------------------------------------------------------------|--------------------------------------------------------------------------------|--------------------------------------------------------------------------------|
--------------------------------------------------------------------|------------17------------------------------------------------------|--------------------------------------------------------------------|--------------------------------------------------------------------|------------------------------12----------------------12------------|------------------------------------------14------------------------|
----------------------------------------------------------------------------|----------------------------------------------------------------------------|-----------------------------12-14----14b-----------------------------------|--------12----------14------------------------------------------------------|--------------14-------------------------------13-------12----------12------|--14----------------------------------------------------------14------------|
----------------------------------------------------|----------------------------------------------------|-----------12-14----------------------11----x--x----|-----12-14----------------------11-14---------------|--14----------------------x--14---------------------|----------------------------------------------------|
----------------------------------------------------|-----------12L12-------------------13L13------------|--11-11-14------------------------------------------|-----------------------------12-15------------------|-----------------------15-15-------------------16---|----------------------------------------------------|
--------------------------------------17------------|-----------x--14------------------------------------|--------------------------------------------18L-----|--------------------15------------------------------|--x--x--16------------------------------------------|----------------------------------------------------|
--------------------------------------------------------------------------------|--------------------------------------------------------------------------------|--18----------18L---------18L---------------------------------------------18----|--------------------------------------------------------------------------------|--------------------------------------------------------------------------------|--------------------------------------------------------------------------------|
--------------------|-----17L--|--17------------------------|--------------------|----------|----------------------------|---------18L--------|--18------|-----18L18------------------|17------------------|----------|--------------------15L-----|--------------------|----------|----------------------------|--------------------|----------|----------------------------|
-----------------------17s--|--19L---------19----9L------|----------------------------|----------------------------|-----------18---------------|-----------------7----------|--15------------------------|----------------------------|----------------------------|----------------------------|----------------------------|----------------------------|
--9-----------------------x--x--x--18L18L-----------|--18L--|--18L--|--18L--|----------------------------------------------------|-------|-------|-------|----------------------------------------------------|-------|-------|-------|----------------------------------------------------|-------|-------|-------|----------------------------------------------------|-------|-------|-------|----------------------------------------------------|-------|-------|-------|
--18L--|--18L--|--18------------|----||-------|-------|----------------|----||-------|-------|----------------|----||-------|-------|----------------|----||-------|-------|----------------|----||-------|-------|----------------|----||
Tap to rate this tab
 
# A B C D E F G H I J K L M N O P Q R S T U V W X Y Z