Related for Stay With The Challenge tab

Physically Challenged – Stay With The Challenge tab

Physically Challenged
Stayin with the challenged

Intro RiffE||--7-----7-----7-----8-----|--9-----9-----9-----9-----|B||-----7-----7-----7-----7--|-----7-----7-----7-----7--|G||--------------------------|--------------------------|D||--------------------------|--------------------------|A||--------------------------|--------------------------|E||--------------------------|--------------------------|
--5-----5-----5-----5-----|--7-----7-----7-----7-----|-----3-----3-----3-----3--|-----5-----5-----5-----5--|--------------------------|--------------------------|--------------------------|--------------------------|--------------------------|--------------------------|--------------------------|--------------------------|
--7-----7-----7-----8-----|--9-----9-----9-----9-----|-----7-----7-----7-----7--|-----7-----7-----7-----7--|--------------------------|--------------------------|--------------------------|--------------------------|--------------------------|--------------------------|--------------------------|--------------------------|
Pre Verse/Chorus
--5-----5-----5-----5-----|--1-----1-----3-----3----|--------------------------|-----3-----3-----3-----3--|-----1-----1-----1-------|--------------------------|--------------------------|-------------------------|--------------------------|--------------------------|-------------------------|--9--9--9--9--9--9--9--9/-|--------------------------|-------------------------|--9--9--9--9--9--9--9--9/-|--------------------------|-------------------------|--7--7--7--7--7--7--7--7--|
----------------------------------|--------------------------|----------------------------------|--------------------------|----------------------------------|--------------------------|--10--10--10--10--10--10--10--10/-|--5--5--5--5--5--5--5--5/-|--10--10--10--10--10--10--10--10/-|--5--5--5--5--5--5--5--5/-|--7---7---7---7---7---7---7---7/--|--3--3--3--3--3--3--3--3/-|
--------------------------|--------------------------|--------------------------|--------------------------|--------------------------|--------------------------|--7--7--7--7--7--7--7--7/-|--9--9--9--9--9--9--9--9/-|--7--7--7--7--7--7--7--7/-|--9--9--9--9--9--9--9--9/-|--5--5--5--5--5--5--5--5/-|--7--7--7--7--7--7--7--7--|
----------------------------------|--------------------------|----------------------------------|--------------------------|----------------------------------|--------------------------|--10--10--10--10--10--10--10--10/-|--5--5--5--5--5--5--5--5/-|--10--10--10--10--10--10--10--10/-|--5--5--5--5--5--5--5--5/-|--7---7---7---7---7---7---7---7/--|--3--3--3--3--3--3--3--3/-|
Verse (palm muted)--------------------------||---------------------------|--------------------------||---------------------------|--------------------------||*--------------------------|--3--3--3--3--3--3--3--3/-||*--------------------------|--3--3--3--3--3--3--3--3/-||---9-----9-----9-----9-----|--1--1--1--1--1--1--1--1/-||------7-----7-----7-----7--|
------------------------------|--------------------------|------------------------------|--------------------------|------------------------------|--------------------------|------------------------------|--------------------------|--10-----10-----10-----10-----|--5-----5-----5-----5-----|------7------7------7------7--|-----3-----3-----3-----3--|
--------------------------|--------------------------|--------------------------|--------------------------|--------------------------|--------------------------|--------------------------|--------------------------|--7-----7-----7-----7-----|--9-----9-----9-----9-----|-----5-----5-----5-----5--|-----7-----7-----7-----7--|
------------------------------|--------------------------|------------------------------|--------------------------|------------------------------|--------------------------|------------------------------|--------------------------|--10-----10-----10-----10-----|--5-----5-----5-----5-----|------7------7------7------7--|-----3-----3-----3-----3--|
--x-x-x-x-x-x-x-x-x-x-x-x-x-x-x-x--||--x-x-x-x-x-x-x-x---x-x-x-x-x-x-x--||--x-x-x-x-x-x-x-x-x-x-x-x-x-x-x-x-*||--x-x-x-x-x-x-x-x-x-x-x-x-x-x-x-x-*||--x-x-x-x-x-x-x-x-x-x-x-x-x-x-x-x--||--x-x-x-x-x-x-x-x-x-x-x-x-x-x-x-x--||
Please rate this tab:
x1.0