Pillar - One Thing tab

ONE THING
As recorded by Pillar
(From the 2004 Album WHERE DO WE GO FROM HERE)
Transcribed by Aidan (hairhockey@hotmail.com)	Words and Music by Pillar

Gtr I (C G C F A D) - 'Distortion 1'
Gtr II (C G C F A D) - 'Distortion 2'
Gtr III (C G C F A D) - 'Clean'
Entire song "one Thing" Recorded by Pillar, including the little riff thing they play at 
end of the song.
 Intro
  Gtr I
|-------------|-------------|-------------|---------------------||-------------|-------------|-------------|---------------------||-------------|-------------|-------------|---------------------||--0--0--0----|--0--0--0----|--5--5--5----|--5--5--5--5--5--5---||--0--0--0----|--0--0--0----|--3--3--3----|--3--3--3--3--3--3---||--0--0--0----|--0--0--0----|--3--3--3----|--3--3--3--2--2--2---|
|
| Gtr II|-------------|-------------|-------------|---------------------||-------------|-------------|-------------|---------------------||-11-11-11----|-11-11-11----|-12-12-12----|-12-12-12-12-12-12---||--x--x--x----|--x--x--x----|--x--x--x----|--x--x--x--x--x--x---||--9--9--9----|--9--9--9----|-10-10-10----|-10-10-10-10-10-10---||-------------|-------------|-------------|---------------------|
PM--| PM--||----------------|----------------||----------------|----------------||----------------|----------------||--0--0--0-------|--0--0--0-------||--0--0--0-0-0-0-|--0--0--0-0-0-0-||--0--0--0-0-0-0-|--0--0--0-0-0-0-|
|
|----------------|----------------||----------------|----------------||-11-11-11-x-x-x-|-11-11-11-x-x-x-||--x--x--x-x-x-x-|--x--x--x-x-x-x-||--9--9--9-x-x-x-|--9--9--9-x-x-x-||----------------|----------------|
5/4 PM--||----------------|-----------------------------||----------------|-----------------------------||----------------|--5--5--5--------------------||--5--5--5-------|--5--5--5-5-5-5---5-5-3-5-0--||--3--3--3-3-3-3-|--3--3--3-5-5-5-0-5-5-3-5-0--||--3--3--3-3-3-3-|----------5-5-5-0-5-5-3-5-0--|
|
|----------------|-----------------------------||----------------|-----------------------------||-12-12-12-x-x-x-|-12-12-12-7-7-7--------------||--x--x--x-x-x-x-|--x--x--x-x-x-x---5-5-3-5-0--||-10-10-10-x-x-x-|-10-10-10-5-5-5-0-5-5-3-5-0--||----------------|----------------0-5-5-3-5-0--|
Verse Q=120 4/4 Gtr III||----------------|--------------|-------------|-------------||||o---------------|--------------|-------------|------------o||||----------------|--------------|-------------|-------------||||----------12----|---------12---|--------5h=7-|-------5-7---||||o----/12--------|----/10-------|-----3-------|----5-------o||||--0-------------|-0------------|--3----------|-5-----------||
ChorusThe chorus may sound kinda weird but there is SO much distortion on the guitar that I hardly tell. Gtr I||--------------------------------|----------------------|||o-------------------------------|----------------------|||----------------10--10----------|-10--10--x-x-x--------|||--0--0--10--10--10--10--10--10--|-10--10--x-x-x-7--10--|||o-0--0---8---8---8---8---8---8--|--8---8--x-x-x-7--10--|||--0--0---8---8-----------8---8--|---------------7--10--|
|-------------------------------|-------------------------------|||-------------------------------|------------------------------o|||---------------10--10----------|-10--10--x-x-x-----------------|||-0--0--10--10--10--10--10--10--|-10--10--x-x-x-----5-----5-----|||-0--0---8---8---8---8---8---8--|--8---8--x-x-x---3-----3------o|||-0--0---8---8-----------8---8--|---------------3-----2---------||
Verse 2||----------------|---------------|--------------|----------||||o---------------|---------------|--------------|---------o||||----------------|---------------|--------------|----------||||----------12----|---------12----|-------5h7----|----5-7---||||o----/12--------|----/10--------|----3---------|-5-------o||||--0-------------|-0-------------|-3---------5--|----------||
Chorus 2||---------------------------------|----------------------|||o--------------------------------|----------------------|||-----------------10--10----------|-10--10--x-x-x--------|||--0--0--10--10---10--10--10--10--|-10--10--x-x-x-7--10--|||o-0--0---8---8----8---8---8---8--|--8---8--x-x-x-7--10--|||--0--0---8---8------------8---8--|---------------7--10--|
|--------------------------------|-------------------------------|||--------------------------------|------------------------------o|||----------------10--10----------|-10--10--x-x-x-----------------|||-0--0--10--10---10--10--10--10--|-10--10--x-x-x-----5------5----|||-0--0---8---8----8---8---8---8--|--8---8--x-x-x---3------3-----o|||-0--0---8---8------------8---8--|---------------3------2--------||
Breakdown|-----------------------|-------------|-------------------------||-----------------------|-------------|-------------------------||-----------------------|-------------|-------------------------||-----------------------|-5-5-x-5-5-x-|-5-8-8-7-7-10-10-----7-7-||-0-5-5-3-3-8-8-7-7-3-3-|-3-3-x-3-3-x-|-5---------------8-8-----||-0---------------------|-3-3-x-3-3-x-|-5-----------------------|
|--------------------|------------------------|-----------------||--------------------|------------------------|-----------------||--------------------|------------------------|-----------------||-8-8--0-8-10-0-8-10-|------------------------|-5-5-x-5-5--x----||-8-8--0-8-10-0-8-10-|-0-5-5-3-3-8-8-7--7-3-3-|-3-3-x-3-3--x----||-8-8--0-8-10-0-8-10-|-0----------------------|-3-3-x-3-3--x----|
|-------------------------|-----------------------||-------------------------|-----------------------||-------------------------|-----------------------||-5-8-8-7-7-10-10-----7-7-|-8-8-7-7-10-10-----7-7-||-5---------------8-8-----|---------------8-8-----||-5-----------------------|-----------------------|
Bridge|--------------|--------------|---------------|---------------||--------------|--------------|---------------|---------------||--------------|--------------|---------------|---------------||-0------------|-3------------|-8-------------|-8-------------||-0------------|-3------------|-5-------------|-8-------------||-0------------|-3------------|-5-------------|-8-------------|
|
|--------------|--------------|---------------|---------------||--------------|--------------|---------------|---------------||--------------|--------------|---------------|---------------||--------------|--------------|-8--7--10---7--|-8--7--10---7--||-5--3--8-7-3--|-5--3--8-7-3--|----------8----|----------8----||--------------|--------------|---------------|---------------|
|----------------|----------------|-----------------|-------------||----------------|----------------|-----------------|-------------||----------------|----------------|-----------------|-------------||-0--------------|-3--------------|--8--------------|-8-----10----||-0--------------|-3--------------|--5--------------|-8-----10----||-0--------------|-3--------------|--5--------------|-8-----10----|
|
|----------------|----------------|-----------------|-------------||----------------|----------------|-----------------|-------------||----------------|----------------|-----------------|-------------||----------------|----------8--7--|-10---7-8--7--10-|---7---------||-5--3--8-7-3-5--|-3--8-7-3-------|----8------------|-8-----------||----------------|----------------|-----------------|-------------|
Interlude||-----------------------|------------------|||o----------------------|------------------|||-----------------------|------------------|||--3p0-----3p0------3p0-|-----3p0------3p0-|||o-----3h5------3h5-----|-3h5------3h5-----|||------0--------0-------|-0--------0-------|
1. 2.|--------------------------------||---------------------------------||-------------------------------o||---------------------------------||--------------------------------||---------------------------------||-----3p0------3p0-3-3-3--5-5-5--||-----3p0-----3p0-----3p0-----3p0-||-3h5------3h5-----3-3-3--5-5-5-o||-3h5-----3h5-----3h5-----3h5-----||-0--------0-------3-3-3--5-5-5--||-0-------0-------0-------0-------|
Chorus/Outro|--------------------------------|----------------------||--------------------------------|----------------------||----------------10--10----------|-10--10--x-x-x--------||-0--0--10--10---10--10--10--10--|-10--10--x-x-x-7--10--||-0--0---8---8----8---8---8---8--|--8---8--x-x-x-7--10--||-0--0---8---8------------8---8--|---------------7--10--|
|--------------------------------|-------------------------------||--------------------------------|-------------------------------||----------------10--10----------|-10--10--x-x-x-----------------||-0--0--10--10---10--10--10--10--|-10--10--x-x-x-----5------5----||-0--0---8---8----8---8---8---8--|--8---8--x-x-x---3------3------||-0--0---8---8------------8---8--|---------------3------2--------|
|--------------------------------|----------------------||--------------------------------|----------------------||----------------10--10----------|-10--10--x-x-x--------||-0--0--10--10---10--10--10--10--|-10--10--x-x-x-7--10--||-0--0---8---8----8---8---8---8--|--8---8--x-x-x-7--10--||-0--0---8---8------------8---8--|---------------7--10--|
|--------------------------------|---------------------------||--------------------------------|---------------------------||----------------10--10----------|-10--10--x-x-x-------------||-0--0--10--10---10--10--10--10--|-10--10--x-x-x-----5--5----||-0--0---8---8----8---8---8---8--|--8---8--x-x-x---3----3----||-0--0---8---8------------8---8--|---------------3------2----|
|-----||-----||-----||-----||-----||-----|
awsomeness||--------------------------------------------------------------------------||||o------------------------------------------------------------------------o||||--------------------------------------------------------------------------||||--------------------------------------------------------------------------||||o------------------------------------------------------------------------o||||--0-0-0-0-0-0-0-0---0-0-0-0-0-0-0-0---0-0-0-0-0-0-0-0---0-0-0-0-0-0-0-0---||
Repeat and then fade They do some time signature switches and the guitar does some cool little things, but im lazy to tab them out.
||--------------------------------------------|||o-------------------------------------------|||-----------7------------------7-----7-8-8-8-|||-----------x------------------x-----x-x-x-x-|||o-0-0--0-0-5-0-0-0-0--0-0-0-0-5-----5-6-6-6-|||--0-0--0-0---0-0-0-0--0-0-0-0---0-0---------|
|--------------------------------------------||--------------------------------------------||----------7------------------------5-8-8-8--||----------x------------------------x-x-x-x--||-0-0--0-0-5-0-0-0-0--0-0-0-0-5-----3-6-6-6--||-0-0--0-0---0-0-0-0--0-0-0-0---0-0----------|
|--------------------------------------------||--------------------------------------------||----------7------------------7------7-8-8-8-||----------x------------------x------x-x-x-x-||-0-0--0-0-5-0-0-0-0--0-0-0-0-5------5-6-6-6-||-0-0--0-0---0-0-0-0--0-0-0-0----0-0---------|
|---------------------------------------|||--------------------------------------o|||----------7---------5-5-5-5-3-3-3-3----|||----------x---------x-x-x-x-x-x-x-x----|||-0-0--0-0-5-0-0-0-0-3-3-3-3-1-1-1-1---o|||-0-0--0-0---0-0-0-0--------------------||
Tablature Legend ---------------- h - hammer-on p - pull-off b - bend pb - pre-bend r - bend release (if no number after the r, then release immediately) /\ - slide into or out of (from/to "nowhere") s - legato slide S - shift slide - natural harmonic [n] - artificial harmonic n(n) - tapped harmonic ~ - vibrato tr - trill T - tap TP - trem. picking PM - palm muting \n/ - tremolo bar dip; n = amount to dip \n - tremolo bar down n/ - tremolo bar up /n\ - tremolo bar inverted dip = - hold bend; also acts as connecting device for hammers/pulls <> - volume swell (louder/softer) x - on rhythm slash represents muted slash o - on rhythm slash represents single note slash Misc Legend ----------- | - bar || - double bar ||o - repeat start o|| - repeat end *| - double bar (ending) : - bar (freetime) $ - Segno & - Coda Tempo markers - = BPM(8/16=s8/s16), where s8 = swing 8ths, s16 = swing 16ths
Tap to rate this tab
 
# A B C D E F G H I J K L M N O P Q R S T U V W X Y Z