Pillows - I Think I Can tab

Heres the lead for the song I Think I Can

This was tabbed by Overburn, pirouzu.neti just moved it here so more people could find it|----------------------7-7-7-7-7-7-| |----------------------9-9-9-7-9-7-| |----------------------9-9-9-7-9-7-| |----------------------9-9-9-7-9-7-| |----------------------7-7-7-7-7-7-| |----------------------------------|
|-5--------------------------| |-5--------------------------| |-6-4b5r4\----9-9-8-8-7-7----| |-7--------/7-------------7--| |-7--------------------------| |-5--------------------------|
|---------------------------------| |--------------------7------5-----| |---4b5r4\-/7-9-7-9--9b11r9-7b9r7-| |----------/7-7-7-7---------------| |---------------------------------| |-5-------------------------------|
|----------------------------------------------| |--------------------3-----5-----7------7------| |-7-7-7777-7-7-3b5r3-5b7r5-7b9r7-9b11r9-9b11r9-| |-7-7-7777-7-7---------------------------------| |-5-5-5555-5-5---------------------------------| |----------------------------------------------|
|-------------------------------------------| |------------------------/15-15-15-15-15-15-| |-7-7-7-7-7-7-7-7--------/14-14-14-14-14-14-| |-7-7-7-7-7-7-7-7-9-7-9---------------------| |-5-5-5-5-5-5-5-5-9-7-9---------------------| |-----------------7-7-7---------------------|
|-5-----------------------| |-5-----------------------| |-6-4b5r4\----9-9-8-8-7-7-| |-7--------/7-------------| |-7-----------------------| |-5-----------------------|
|-9-9---------------10---10----------------| |-----8-8-8-8-8-8-------------7------5-----| |-----------------9----9----9-9b11r9-7b9r7-| |------------------------------------------| |------------------------------------------| |------------------------------------------|
|----------------------------------------------| |--------------------3-----5-----7------7------| |-7-7-7777-7-7-3b5r3-5b7r5-7b9r7-9b11r9-9b11r9-| |-7-7-7777-7-7---------------------------------| |-5-5-5555-5-5---------------------------------| |----------------------------------------------|
|-------------------------------------------| |------------------------/15-15-15-15-15-15-| |-7-7-7-7-7-7-7-7--------/14-14-14-14-14-14-| |-7-7-7-7-7-7-7-7-9-7-9---------------------| |-5-5-5-5-5-5-5-5-9-7-9---------------------| |-----------------7-7-7---------------------|
|---------------------------------| |---------------------------------| |---------6-6-6-6-7-7-7-7-9-9-9-9-| |-7-7-7-7-------------------------| |---------4-4-4-4-5-5-5-5-7-7-7-7-| |-5-5-5-5-------------------------|
|-------------------------------7-7-7-7-7-7-| |-------------------------------9-9-9-7-9-7-| |-10-10-10-10-12-12-12-12-14----9-9-9-7-9-7-| |-------------------------------9-9-9-7-9-7-| |--8--8--8--8-10-10-10-10-12----7-7-7-7-7-7-| |-------------------------------------------|
|-5--------------------------| |-5--------------------------| |-6-4b5r4\----9-9-8-8-7-7----| |-7--------/7-------------7--| |-7--------------------------| |-5--------------------------|
|---------------------------------------------| |--------------------------------7------5-----| |--------------------------------9b11r9-7b9r7-| |---------------------------------------------| |-4b5r4-/-5b7r5-/-7b9r7-/-9b11r9--------------| |---------------------------------------------|
|----------------------------------------------| |--------------------3-----5-----7------7------| |-7-7-7777-7-7-3b5r3-5b7r5-7b9r7-9b11r9-9b11r9-| |-7-7-7777-7-7---------------------------------| |-5-5-5555-5-5---------------------------------| |----------------------------------------------|
|-------------------------------------------| |------------------------/15-15-15-15-15-15-| |-7-7-7-7-7-7-7-7--------/14-14-14-14-14-14-| |-7-7-7-7-7-7-7-7-9-7-9---------------------| |-5-5-5-5-5-5-5-5-9-7-9---------------------| |-----------------7-7-7---------------------|
|------------------------------------------------------| |-----------------------------------------7------5-----| |-----------------------------------------9b11r9-7b9r7-| |------------------------------------------------------| |-000000000000000000000000000000000000...--------------| |------------------------------------------------------|
|----------------------------------------------| |--------------------3-----5-----7------7------| |-7-7-7777-7-7-3b5r3-5b7r5-7b9r7-9b11r9-9b11r9-| |-7-7-7777-7-7---------------------------------| |-5-5-5555-5-5---------------------------------| |----------------------------------------------|
|-------------------------------------------| |------------------------/15-15-15-15-15-15-| |-7-7-7-7-7-7-7-7--------/14-14-14-14-14-14-| |-7-7-7-7-7-7-7-7-9-7-9---------------------| |-5-5-5-5-5-5-5-5-9-7-9---------------------| |-----------------7-7-7---------------------|
|---------------------------------| |---------------------------------| |---------6-6-6-6-7-7-7-7-9-9-9-9-| |-7-7-7-7-------------------------| |---------4-4-4-4-5-5-5-5-7-7-7-7-| |-5-5-5-5-------------------------|
|-------------------------------------| |-------------------------------------| |-10-10-10-10-12-12-12-12-14-14-14-14-| |-------------------------------------| |--8--8--8--8-10-10-10-10-12-12-12-12-| |-------------------------------------|
|-------------------------| |-------------------------| |-6-6-6-6-7-7-7-7-9-9-9-9-| |-------------------------| |-4-4-4-4-5-5-5-5-7-7-7-7-| |-------------------------|
|------------------------------------------| |--------------------------3-2-------------| |-10-10-10-10-12-12-12-12------3-2---------| |----------------------------------3-2-0---| |--8--8--8--8-10-10-10-10----------------2-| |------------------------------------------|
|-----------------------------------------------| |-----------------------------------------------| |-----------------------------------------------| |-------------------------------------------4p0-| |-/4-5-/7-4b5r4-2-0-2-2/4-0---------2p0-4p0-----| |---------------------------0h2h3h5-------------|
|-------------------------------------------------------------| |-3-3-2-3-3-3-2-3-3-3-2-3/5-3-2-3~-3-2-3-/10~-10\-3-2-0---0-2-| |-------------------------------------------------------2-----| |-------------------------------------------------------------| |-------------------------------------------------------------| |-------------------------------------------------------------|
|-/9-9-9-9-9-9-------9-9-9-9-9-9-------10---10---11---12--------------| |--------------8\-/8-------------8\----------------------7------9-----| |------------------------------------9----9----9----9----9b11r9-7b9r7-| |---------------------------------------------------------------------| |---------------------------------------------------------------------| |---------------------------------------------------------------------|
|-----------------------------------------------| |-----/15-15-15-15-15-15-----/15-15-15-15-15-15-| |-7-7-/14-14-14-14-14-14-----/14-14-14-14-14-14-| |-7-7--------------------9-9--------------------| |-5-5--------------------9-9--------------------| |------------------------7-7--------------------|
|-----------------------------------------------| |-----/15-15-15-15-15-15--/17-17-15-14-15-14-12-| |-7-7-/14-14-14-14-14-14------------------------| |-7-7-------------------------------------------| |-5-5-------------------------------------------| |-----------------------------------------------|
|-5--------------------------| |-5--------------------------| |-6-4b5r4\----9-9-8-8-7-7----| |-7--------/7-------------7--| |-7--------------------------| |-5--------------------------|
|---------------------------------------------| |--------------------------------7------5-----| |-4b5r4-/-5b7r5-/-7b9r7-/-9b11r9-9b11r9-7b9r7-| |---------------------------------------------| |---------------------------------------------| |---------------------------------------------|
|----------------------------------------------| |--------------------3-----5-----7------7------| |-7-7-7777-7-7-3b5r3-5b7r5-7b9r7-9b11r9-9b11r9-| |-7-7-7777-7-7---------------------------------| |-5-5-5555-5-5---------------------------------| |----------------------------------------------|
|-------------------------------------------| |------------------------/15-15-15-15-15-15-| |-7-7-7-7-7-7-7-7--------/14-14-14-14-14-14-| |-7-7-7-7-7-7-7-7-9-7-9---------------------| |-5-5-5-5-5-5-5-5-9-7-9---------------------| |-----------------7-7-7---------------------|
|---------------------------------| |---------------------------------| |---------6-6-6-6-7-7-7-7-9-9-9-9-| |-7-7-7-7-------------------------| |---------4-4-4-4-5-5-5-5-7-7-7-7-| |-5-5-5-5-------------------------|
|-------------------------------------| |-------------------------------------| |-10-10-10-10-12-12-12-12-14-14-14-14-| |-------------------------------------| |--8--8--8--8-10-10-10-10-12-12-12-12-| |-------------------------------------|
|-------------------------| |-------------------------| |-6-6-6-6-7-7-7-7-9-9-9-9-| |-------------------------| |-4-4-4-4-5-5-5-5-7-7-7-7-| |-------------------------|
|-------------------------------------| |-------------------------------------| |-10-10-10-10-12-12-12-12-14-14-14-14-| |-------------------------------------| |--8--8--8--8-10-10-10-10-12-12-12-12-| |-------------------------------------|
|-------------------------| |-------------------------| |-6-6-6-6-7-7-7-7-9-9-9-9-| |-------------------------| |-4-4-4-4-5-5-5-5-7-7-7-7-| |-------------------------|
|-------------------------------------| |-------------------------------------| |-10-10-10-10-12-12-12-12-14-14-14-14-| |-------------------------------------| |--8--8--8--8-10-10-10-10-12-12-12-12-| |-------------------------------------|
|-------------------------| |-------------------------| |-6-6-6-6-7-7-7-7-9-9-9-9-| |-------------------------| |-4-4-4-4-5-5-5-5-7-7-7-7-| |-------------------------|
|-------------------------------------------| |-------------------------------------------| |-10-10-10-10-12-12-12-12-6-6-6-6-6-6-6-6-6-| |-------------------------7-7-7-7-7-7-7-7-7-| |--8--8--8--8-10-10-10-10-7-7-7-7-7-7-7-7-7-| |-------------------------5-5-5-5-5-5-5-5-5-|
Tap to rate this tab
 
# A B C D E F G H I J K L M N O P Q R S T U V W X Y Z