Pink Floyd - Have A Cigar tab

                         *Have A Cigar (Waters)*
                              Pink Floyd
                          Wish You Were Here

Intro:|-------------------------------------------||-------------------------------------------||-x-x-x-x-----------------------------------||-x-x-x-x---2-----2---2-2-5--2-5----2-----2-||-x-x-x-x---2-----2---2-2----2------2-----2-||---------0---3/4-----------------0---3/4---|
|--------------------------------------||--------------------------------------||----------x-x-x-x-x\------------------||--2-----0-x-x-x-x-x\----2-------2---2-||--2-------x-x-x-x-x\----2-------2---2-||----0-3---------------0---0-3b4-------|
|----------------------------------------------------------||----------------------------------------------------------||---------------------2b4-~--------------------------------||-2--0-----------------------2--4--5--------------5--4--2--||------2-1-0--------------------------3--------3-----------||------------3---0-----------------------------------------|
|---------------------------------------------------------------------------||-12-12-12-12-12\-----------------------------------------------------15b17-||-12-12-12-12-12\-----------------------------------------------------------||---------------------2--4--5----------------5--4--2--0------0-1-2----------||------------------------------3--------5----------------3-4----------------||---------------------------------------------------------------------------|
Chords: Em Come in here dear boy, have a cigar, you're gonna go far,
|------------------||------------------||-2-b-4---4-4-4-4--||------------------||------------------||------------------|
C You're gonna fly high, you're never gonna die, D Em You're gonna make it if you try, they're gonna love you.
|-7-b-5----||----------||----------||----------||----------||----------|
Em Well I've always had a deep respect and I mean that most sincerely,
|-5---7--------------------------||---5---8------------------------||-----------------------2-b4-----||--------------------------------||--------------------------------||--------------------------------|
C The band is just fantastic that is really what I think, D Em Oh by the way, which one's Pink? | |-15b17-15b17 C D Em C And did we tell you the name of the game, boy, D G C G We call it "Riding the gravy train".
G F# F E|-3-2--2-1--0--------------------------||-3-2--2-1--0-----------17b15p12-15b17-||-4-3--3-2--0--------------------------||-5-4--4-3--2--------------------------||-5-4--4-3--2--------------------------||-3-2--2-1--0--------------------------|
Em We're just knocked out, we heard about the sell out, C You've gotta get an album out, you owe it to the people, D Em We're so happy we can hardly count. Em Everybody else is just green, have you seen the chart? C It's a hell of a start, it could be made into a monster, D Em If we all pull together as a team. C D Em C And did we tell you the name of the game, boy, D G C G We call it "Riding the gravy train".
|-3-2--2-1--||-3-2--2-1--||-4-3--3-2--||-5-4--4-3--||-5-4--4-3--||-3-2--2-1--|
Guitar Solo:|-------------------------------------------------12-15-12-15--||-15b17-----15b17-15--12------------------15b17----------------||------------------------14b16-12b14-12------------------------||--------------------------------------------------------------||--------------------------------------------------------------||--------------------------------------------------------------|
|-17b19-19-19--15b17-15-14-------------------------------------||--------------------------15-15-15-15b17----------------------||------------------------------------------16b14--12-------12--||----------------------------------------------------14-14-----||--------------------------------------------------------------||--------------------------------------------------------------|
|--------------------------------------------------------------------||-14-14--14-14--14-12------------------------------------------------||-14-14--14-14--14-12--12---------------------12-x-12-x-12-x-12-x-12-||-------------------------14-----------------------------------------||-----------------------------14p12----12-14-------------------------||-----------------------------------15-------------------------------|
|--------------------15p12------------------------------15-15----||---------------12-x--------15b17-17-15b17-17--15b17-17-------17-||-12/14-12-------------------------------------------------------||-12/14-12-------------------------------------------------------||-----------14---------------------------------------------------||----------------------------------------------------------------|
|-15b17--15-14-14-------22-b20-19-17----------------||-----------------15-----------------20-17-17--20---||---------------------------------------------------||---------------------------------------------------||---------------------------------------------------||---------------------------------------------------|
|-----12-12------------------------------||-/12-------15---------------------------||--------------16b14--12-14-12-----------||----------------------------------------||-------------------------------14p12----||-------------------------------------15-|
|--------------------------------------------------------------------------||-12-x-12-x-12-x-12-x-12-x-12-x-12-x-12-x-12-x-12-x-12-x-12-x-12/14--14\12-||-12-x-12-x-12-x-12-x-12-x-12-x-12-x-12-x-12-x-12-x-12-x-12-x-12/14--14\12-||--------------------------------------------------------------------------||--------------------------------------------------------------------------||--------------------------------------------------------------------------|
|--------------------------------------------------------------------||-12-x-12-x-12-x-12--12-15-15b17-15----------------------15b17-17-17-||-12-x-12-x-12-x-12-----------------16b14p12--14-12------------------||---------------------------------------------------14---------------||--------------------------------------------------------------------||--------------------------------------------------------------------|
|----------15p14h15---14-15-14---12--------------------------||-15b17-17--------------------------15-15b17-15--------------||-----------------------------------------------14b16-14-12--||------------------------------------------------------------||------------------------------------------------------------||------------------------------------------------------------|
|-------------------------------------------------------------||--------------------------------------12--12-x-12-x-14--12---||-14b16b14b16-b14b16-b14p12-14p12------12--12-x-12-x-14--12---||---------------------------------14--------------------------||-------------------------------------------------------------||-------------------------------------------------------------|
|-------12-------------------------------12-12------17b19-b17b19--||----------15------------------------------------15---------------||-14b16-------14b16-14-12----12---14b16---------------------------||-------------------------14--------------------------------------||-----------------------------------------------------------------||-----------------------------------------------------------------|
|-17b19-b17b19--17b19-17-15------------------------------------------||---------------------------17-17--19b20---19b20--19b20-20-20--19b20-||--------------------------------------------------------------------||--------------------------------------------------------------------||--------------------------------------------------------------------||--------------------------------------------------------------------|
|--------------------------------------------------------------------||-19b20--20-20-20-20-17---------------12-x-12-x-12-x-12x-12/14-14\12-||------------------------14p12-14b16--12-x-12-x-12-x-12x-12/14-14\12-||--------------------------------------------------------------------||--------------------------------------------------------------------||--------------------------------------------------------------------|
|-----------------------------12--------------------------------||-12-x-12-x-12-x-12--------------15-----------------------------||-12-x-12-x-12-x-12--14b16-16-------14b16-14-12h14-12--12-------||---------------------------------------------------------------||---------------------------------------------------------15-15-||---------------------------------------------------------------|
Volume Drop V|-------------------------------------------------------------------||----------------------------15b17b15-------------------------------||----11-11b12b11----------------------14b16-b14--14b16--16b14p12----||-10-------------10--10/12---------------------------------------14-||-------------------------------------------------------------------||-------------------------------------------------------------------|
|-15p12-15p12-15b17-b15--15-x-15-x-15-x-15-x-15-x-15--15b17-15-||--------------------------------------------------------------||--------------------------------------------------------------||--------------------------------------------------------------||--------------------------------------------------------------||--------------------------------------------------------------|
Tap to rate this tab
 
# A B C D E F G H I J K L M N O P Q R S T U V W X Y Z