Pink Floyd - Shine On Pt5 tab

Shine On You Crazy Diamond
  			      part 5
			  by Pink Floyd


 			    tabbed by
			jamesb@nevada.edu


---------------0------------------------------0----------6-----------------------------6-----------------------0----(0)------------------------0---(0)-----8-----------(8)---------------8------------(8)---------------------------------------------------------------------------1>3>1>3-----------------------
--8-------10------8------0------8------10-------8------------6--------6------6------6------6-------6--------6---------------------------------------------------------------------8-------8------8------8------8-------8---------8--------------------------------------------------------------------------------------------------------------------
-0--------8--------10------8-------0------8--------10-------8------------6--------6---------6-----6-------6-------6--------6--------6----- <----
--------------------------------------------------------------------- repeat-------8--------8--------8------8-------8-------8--------8-------8--- 3--------------------------------------------------------------------- times.---------------------------------------------------------------------
--6---6------6-------5-------6-------6--------6------5------6------------------------8-------8-------8--------8-------8------8-------8-------------------------------------------------------------------------------------8--------8-------8-------8--------8-------8-----8--------8-----------------------------------------------------------------------------------------------------------------------------------------------
--5-------5-------4-------5--------6-----5--------4-----5-------------7-------7-------7--------7--------7-----7--------7-----7------------------------------------------------------------------------------7--------7-------7--------7-------------7---------------7---------------------------------------------------------------------------------------------------------------------------------------
--0-------8--------10--------8-------0-------8-------10--------8-----------6-------6----------6-------6-------6--------6--------6-------6----- <-----
----------------------------------------------------------------------- repeat------8--------8---------8--------8-------8--------8--------8-------8-- 8----------------------------------------------------------------------- times.-----------------------------------------------------------------------
--6------6------5------6------6------6-----5-------6-------------8------8------8-------8-----8-------8-----8------8--------------------------------------------------------------------------8-------8------8------8------8-------------8------8\7----------------------------------------------------------------------------------------------------------------------------
--5-----5-----4-----5-----6------5-----4-----5--------------7----7-----7-----7-----7-------7-----7-----7-------------------------------------------------------------------------7-----7-----7-----7--------------------7-----------------------------------------------------------------------------------------------------------------
--0-------8-------10------8------0--------8-------10--------8---------------6-------6-------6------6-------6-------6---------6--------6------- <-----
----------------------------------------------------------------------- repeat-------8-------8--------8------8-------8-------8---------8---------8--- and----------------------------------------------------------------------- fade-----------------------------------------------------------------------
transcribed by Dave Whitehill for Guitar World
Tap to rate this tab
 
# A B C D E F G H I J K L M N O P Q R S T U V W X Y Z