Pink Floyd - Happiest Days tab

Notes:

/ = slide up  \ = slide down  H = hammer-on  B = bend
PM = palm mute  '' = continue picking note (listen for rhythm)



gtr. 1 (w/delay) PM throughout|---------------------------------|---------------------------------||---------------------------------|---------------------------------||---------------------------------|---------------------------------||---------------------------------|---------------------------------||-5'''''''''''''''''''''''''''''''|'''''''''''''''''''''''''''''''''||---------------------------------|---------------------------------|
| bass (w/delay*)| + o|---------------------------------|---------------------------------||---------------------------------|---------------------------------||---------------------------------|---------------------------------||-10\-----------------------------|-10------------------------------| * + = delay on, o = delay off
|---------------------------------|-----------------------------------||---------------------------------|-----------------------------------||---------------------------------|-----------------------------------||---------------------------------|-----------------------------------||'''''''''''''''''''''''''''''''''|'''''''''''3'''''''----------------||---------------------------------|-------------------6'''''''5---3'''|
|
| + o|---------------------------------|-----------------------------------||---------------------------------|-----------------------------------||---------------------------------|-----------------------------------||-10\-----------------------------|-10--10-10-9-9---9-6-----6-5---3---|
|---------------------------------|---------------------------------||---------------------------------|---------------------------------||---------------------------------|---------------------------------||---------------------------------|---------------------------------||---------------------------------|---------------------------------||'''''''''''''''''''''''''''''''''|'''''''''''''''''''''''''''''''''|
| |
|---------------------------------|---------------------------------||---------------------------------|---------------------------------||---------------------------------|---------------------------------||-----------------------------3---|-----------------------------3---|
|---------------------------------|---------------------------------||---------------------------------|---------------------------------||---------------------------------|---------------------------------||---------------------------------|---------------------------------||---------------------------------|---------------------------------||'''''''''''''''''''''''''''''''''|'''''''''''''''''''''''''''''''''|
| |
|---------------------------------|---------------------------------||---------------------------------|---------------------------------||---------------------------------|---------------------------------||-----------------------------3---|-----------------------------3---|
|---------------------------------|---------------------------------|||---------------------------------|---------------------------------|||---------------------------------|---------------------------------|||---------------------------------|---------------------------------|||---------------------------------|---------------------------------|||-3H5---5'''''''''''''''''''''''''|'''''''''''''''''''''''''''''''''||
| |
|---------------------------------|---------------------------------|||---------------------------------|---------------------------------|||---------------------------------|---------------------------------|||-5---------------------------3---|-5---------------------------3---|| When
|-------------------------------------------------||-------------------------------------------------||-------------------------------------------------||-------------------------------------------------||-------------------------------------------------||'''''''''''''''''''''''''''''''''''''''''''''''''|
| |
|-------------------------------------------------||-------------------------------------------------||-------------------------------------------------||-5-----------------------------------------3-----| we grew up and ...
|-------------------------------------------------||-------------------------------------------------||-------------------------------------------------||-------------------------------------------------||-------------------------------------------------||'''''''''''''''''''''''''''''''''''''''''''3-----|
| |
|-------------------------------------------------||-------------------------------------------------||-------------------------------------------------||-5-----------------------------------------3-----| There were cer - tain ...
|-------------------------------------------------||-------------------------------------------------||-------------------------------------------------||-------------------------------------------------||-------------------------------------------------||-------------------------3''''''''''''''''''''---||-5'''''''''''''''''''''''---------------------3--|
| |
|-------------------------------------------------||-------------------------------------------------||-------------------------3-----------------------||-5-----------------------------------------3-----| Hurt the children an-...
|---------------------------------|---------------------------------||---------------------------------|---------------------------------||---------------------------------|---------------------------------||---------------------------------|---------------------------------||---------------------------------|---------------------------------||-5'''''''''''''''''''''''''''''''|'''''''''''''''''''''''''''''''''|
| |
|---------------------------------|---------------------------------||---------------------------------|---------------------------------||---------------------------------|---------------------------------||-5-------------------------------|-5---------------------------3---| could "Oof...
|---------------------------------|---------------------------------||---------------------------------|---------------------------------||---------------------------------|---------------------------------||---------------------------------|---------------------------------||---------------------------------|---------------------------------||'''''''''''''''''''''''''''''3---|-1'''''''''''''''''''''''''''3---|
| |
|---------------------------------|---------------------------------||---------------------------------|---------------------------------||---------------------------------|---------------------------------||-5-----------------------5---3---|-1-----------------------1---3---| pouring their derision ...
|---------------------------------|---------------------------------||---------------------------------|---------------------------------||---------------------------------|---------------------------------||---------------------------------|---------------------------------||---------------------------------|---------------------------------||-5'''''''''''''''''''''''''''3---|-0'''''''''''''''''''''''''''3B--|
| |
|---------------------------------|---------------------------------||---------------------------------|---------------------------------||---------------------------------|---------------------------------||-5-----------------------5\------|-0---------------------------3---| pos-ing ev- 'ry weakness How - ...
|---------------------------------|---------------------------------||---------------------------------|---------------------------------||---------------------------------|---------------------------------||---------------------------------|---------------------------------||---------------------------------|---------------------------------||-5'''''''''''''''''''''''''''3-4-|-5'''''''''''''''''''''''''''3-4-|
| |
|---------------------------------|---------------------------------||---------------------------------|---------------------------------||---------------------------------|---------------------------------||-5---------------------------3---|-5---------------------------3---| kids [laughing]
|---------------------------------|---------------------------------||---------------------------------|---------------------------------||---------------------------------|---------------------------------||---------------------------------|---------------------------------||---------------------------------|---------------------------------||-5'''''''''''''''''''''''''''3-4-|-5'''''''''''''''''''''''''''''''|
| |
|---------------------------------|---------------------------------||---------------------------------|---------------------------------||---------------------------------|---------------------------------||-5---------------------------3---|-5-------------------------------| But in the
|-------------------------------------------------||-------------------------------------------------||-------------------------------------------------||-------------------------------------------------||-5'''''''''''''''''''''''''''''''''''''''''3-----||-------------------------------------------------|
| |
|-------------------------------------------------||-------------------------------------------------||-------------------------------------------------||-10----------10----------10----------10\---------| town it was well ...
|-------------------------------------------------||-------------------------------------------------||-------------------------------------------------||-------------------------------------------------||-------------------------------------------------||-6'''''''''''''''''''''''''''''''''''''''''5-----|
| |
|-------------------------------------------------||-------------------------------------------------||-------------------------------------------------||-6-----------6-----------6-----------6-----5-----| home at night, their ...
|-------------------------------------------------||-------------------------------------------------||-------------------------------------------------||-------------------------------------------------||-------------------------------------------------||-3'''''''''''''''''''''''''''''''''''''''''''''''|
| |
|-------------------------------------------------||-------------------------------------------------||-------------------------------------------------||-3-----------3-----------3-----------3/----------| pathic wives would ...
gtr. 2 (w/dist.)|---------------------------------||-----------------|-----------------||---------------------------------||-----------------|-----------------||---------------------------------||-----------------|-3---------------||---------------------------------||-3---------------|-3---------------||-3'''''''''''''''''''''''''''''''||-3---------------|-1---------------||---------------------------------||-1---------------|-----------------|
| |
|---------------------------------||-----------------|-----------------||---------------------------------||-----------------|-----------------||---------------------------------||-----------------|-1---------------||-8-------------------8\----------||-1---------------|-----------------| inches of their lives ....
|-----------------|-----------------|-----------------||-----------------|-----------------|-----------------||-----------------|-3---------------|-----------------||-3---------------|-3---------------|-3---------------||-3---------------|-1---------------|-3---------------||-1---------------|-----------------|-1---------------|
| |
|-----------------|-----------------|-----------------||-----------------|-----------------|-----------------||-----------------|-1---------------|-----------------||-1---------------|-----------------|-1---------------| Ooh ooh ooh Ooh ...
|-----------------|-----------------|-----------------|||-----------------|-----------------|-----------------|||-3---------------|-5---------------|-----------------|||-3---------------|-5---------------|-----------------|||-1---------------|-3---------------|-----------------|||-----------------|-----------------|-----------------||
| |
|-----------------|-----------------|-----------------|||-----------------|-----------------|-----------------|||-1---------------|-3---------------|-----------------|||-----------------|-----------------|-----------------|| Ooh ooh ooh Ooh [Scream]
Tap to rate this tab
 
# A B C D E F G H I J K L M N O P Q R S T U V W X Y Z