Pink Floyd - On The Turning Away Live tab


                           On The Turning Away
                               Pink Floyd
                      Delicate Sound Of Thunder (Live)



|-----------------------------12-----------------------------||-15B(17) 15P12H15------12--------0-2-2B(2)2B(2)-(2)P0-------||----------------------------------------/2------------------||------------------------------------------------------------||------------------------------------------------------------||------------------------------------------------------------|
|------------------------------------------------------------||--------12-15-15B(17) 15B(17)R------------------------------||----------------H2------------------------------------------||------------------------------------------------------------||------------------------------------------------------------||------------------------------------------------------------|
|------------------------------------------------------------||-15-15-15P12--15--------------------------------------------||-------------------------2B(4)(ah)-2P0 2 P 0----------------||------------------------------------------------------------||------------------------------------------------------------||------------------------------------------------------------|
|------------------------------------------------------------||-------------0---2----0----2B(4) R2P0----2------------------||---------/2---2----2---2--------------------2----2----------||---2P0H2----------------------------------------------------||------------------------------------------------------------||------------------------------------------------------------|
|------------------------------------------------------------||--12H15-15B(17)---15B(17)R15--15-15-15P12-------------------||------------------------------------------------------------||------------------------------------------------------------||------------------------------------------------------------||------------------------------------------------------------|
|---------------------------------------------9-- 9---9---9-\---||---------------------------------------------9---9---9---9-\---| |------12\------------------------------------9---9---9---9-\---| |---------------------------------------------9---9---9---9-\---| |--------------------0-2--------0-------------7---7---7---7-\---| |----------------/3-----3-2-3----2--0---------------------------|
|---------------------------------------------||---------------------------------------------||---------------------------------------------||---------------------------------------------||-------0-2-3----3P2P0H2-----0-H2\------------||---/3----------------------------3-----------|
|---------------------------------------------------------------------||--12--15 15B(17)--15-15 P12---15B(17) 15P12H15 P12-------------------||---------------------------------------------------------------12----||---------------------------------------------------------------------||---------------------------------------------------------------------||---------------------------------------------------------------------|
|--10H12\-19-19P17s15----15-17p15s14------------||----------------------------17-----------------||-----------------------------------------------||-----------------------------------------------||-----------------------------------------------||-----------------------------------------------|
|------------------------------------------------------------------||---15 15b(17) (17)R15-15p12---------------------------------------||---------------------------------------------12---14p12h14 14p12--||------------------------------------------------------------------||------------------------------------------------------------------||------------------------------------------------------------------|
|----------------------------------------||-------------15-------------------------||-14b(16)--------(16)R14p12--------------||----------------------------------14----||----------------------------------------||----------------------------------------|
|-------------------------------------------------------------------------||--2b(4)r(4)2p0-------4(ah) 2p0h4b(5) 2-2--0-0----------------------------||-------------2-----------------------------------------------------------||-------------------------------------------------------------------------||---------------------------------------------------------0-2--------0----||-----------------------------------------------------/3------3-2-3---2-0-|
|--9---9-9--------------------------------------------------------------||--9---9-9--------------------------------------------------------------||--9---9-9------------------------------------------2(ah)b(3)-p0----0---||--9---9-9-----------------------------------------------------------2--||--7---7-7--------0-2-3-3b(4)r3p2p0h2-/5\2------------------------------||---------------/3------------------------------------------------------|
|---------------------------------------------------------||---------------------------------------------------------||---------------------------------------------------------||---2(ah)b(3)-p0----0-------------------------------------||-------------2-----------------0-2--2/5-5\2--------------||---------------------------0-------0-3----------------3--|
|-3---3--3--3-----15p12-----14p12-----15p12-----14p12-----||-3---3--3--3-------------12---------12----------12-------||-0---0--0--0---------------------------------------------||-0-------------------------------------------------------||-2-------------------------------------------------------||-3-------------------------------------------------------|
|------15b(17)r(17)15p14---14b(15)r(15)14------------------||---12----------------------------------------------15-----||-------------------------------------------------------14-||----------------------------------------------------------||----------------------------------------------------------||----------------------------------------------------------|
|--------------------------------------------------------||-12---15---12h15p12-------------------------------------||----14----------------------14b(15)r(15)14p12----12-----||-----------------------------------------------------14-||--------------------------------------------------------||--------------------------------------------------------|
|----------------------------------15-17-19 19p17-17---15-15---||-/12--15-15/17---15/17----------------------------------------||--------------------------------------------------------------||--------------------------------------------------------------||--------------------------------------------------------------||--------------------------------------------------------------|
|--------------------------------------------------------||---10p8--8-10-10b(12)ah----10p8--8-7----10b(12)----h18--||---------9-----------------------------9--9-------------||--------------------------------------------------------||--------------------------------------------------------||--------------------------------------------------------|
|--------------------------------------------------------||-r(12)10p8h10b(12)-----h18 r(12)10p8--------------------||--------------------------------------------------------||--------------------------------------------------------||--------------------------------------------------------||--------------------------------------------------------|
|------------------------------------------------------||--10b(11)r10p8-----------7-10-------------------------||-------------------9------9--------9b(11)r(11)9-7-----||------------------------------------------------------||------------------------------------------------------||------------------------------------------------------|
|------------------------------------------------------||--------2b(4)r(4)2p0 4 4b(6)ah-r(5)ah-b(6)ah-r(6)4p2--||------------------------------------------------------||-9-/7p5-----------------------------------------------||---------7--------------------------------------------||------------------------------------------------------|
|-------------------------------------------------------------||--2-2--0-0--------------------------------------9-9-9-9-9\---||------------------------------------------------9-9-9-9-9\---||------------------------------------------------9-9-9-9-9\---||------------------0-2---------0-----------------7-7-7-7-7\---||---------------/3-----3--2-3----2--0-------------------------|
|--------------------------------------------------------||-9-9-9-9-9\------9-9-9-9-9\----9-9-9-9-9\---------------||-9-9-9-9-9\------9-9-9-9-9\----9-9-9-9-9\---------------||-9-9-9-9-9\------9-9-9-9-9\----9-9-9-9-9\---------------||--7-7-7-7-7\------7-7-7-7-7\----7-7-7-7-7\--------------||--------------------------------------------------------|
|------------------------------------------3-------------------||----9-9-9-9-9\-----9-9-9----8-8------3-----------12h15/17-----||----9-9-9-9-9\-----9-9-9----9-9------4-------14---------------||----9-9-9-9-9\-----9-9-9----9-9------5------------------------||----7-7-7-7-7\-----7-7-7----7-7------5------------------------||------------------------------------------3-------------------|
|----------/19-17\15-14----------------------------------------||-------------------15 b(17)r(17)15p12-15----------------------||--------------------------------------------------------------||--------------------------------------------------------------||--------------------------------------------------------------||--------------------------------------------------------------|
|-------------------------------------------------------------------------||----15b(17)15(17)---r(17)15--12--15-12-----------------------------------||---------------------------------------------------2b(3)ah-r(3)2p0-------||----------------------------------------------------------------------2--||-------------------------------------------------------------------------||-------------------------------------------------------------------------|
|--------------------------------------------------------||--------------------------------------------------------||---0-2---0h2/4\2p0-------0-2-2/4\2p0--------------------||---2---------------------2---2----------------2---------||--------------------------------------------------------||--------------------------------------------------------|
|---------------------------------------------------------||---------------------------------------------------------||---------------------------------------------------------||---2b(3)r(3)2p0------------------------------------------||-------------------2-----------------0-2--------0--------||----------------------0\----------/3-----3-2-3---2--0----|
|----------------------------------------------------------------|||-------15b(17)r(17)15B(17)------9-------------------------------|||---------------------------------------9------------------------|||-----------------------------------9----------------------------|||-------------------------------------7--------------------------|||----------------------------------------------------------------||
NOTATION USED: B or b Bend B or b (17) bend to appropriate tone, in this case tone of 17th fret R or r release bend 15b(17)r(17)15 bend string at 15th fret to get 17th fret tone then release bend from 17th fret tone to 15th P or p pull off H or h Hammer on Ah Artificial Harmonics This is not written to time, you should listen to the song and get the feel of the notes and correlate them to the music. Whammy bar and vibrato have been left out. You can hear where it is used.
Tap to rate this tab
 
# A B C D E F G H I J K L M N O P Q R S T U V W X Y Z