Placebo - My Sweet Prince tab version 3

The way I have it written here, it's in standard tuning, this also seems to be the best 
way I've found to play it personally.

Intro + "Never thought..."

--------------1--0---------1--0-----------1--0-----------1--0-----|-----------3------------3--------------3--------------3-----------|--------2------------2--------------2--------------2--------------| X2-----0---------------------------0--------------------------------|------------------4-----------------------------1-----------------|------------------------------------------------------------------|
"Me and the dragon..."
--------------------1--0------------------------1--0---|-----------3-----3--------------3------------3---------|--------2--------------------2-------------------------| X2--------------------------0--------------0-------------|-----0--------0----------------------------------------|-------------------------------------------------------|
"My Sweet Prince..."
----------------------------------------------|------------3---------3---------3--2----------|--------------------------------2--0----------|----0----------------------0------------------|-----------------4----------------------4-----|----------------------------------------------|
"Never thought..."
--------------1--0---------1--0-----------1--0-----------1--0-----|-----------3------------3--------------3--------------3-----------|--------2------------2--------------2--------------2--------------|-----0---------------------------0--------------------------------|------------------4-----------------------------1-----------------|------------------------------------------------------------------|
"Me and my valuable friend..."
--------------------1--0------------------------1--0---|-----------3-----3--------------3------------3---------|--------2--------------------2-------------------------| X2--------------------------0--------------0-------------|-----0--------0----------------------------------------|-------------------------------------------------------|
"My sweet prince..."
-------------------------------------------------1-0---|-----------3-3------------------3--2----------3--------|-----------2-0------------------2--0-------2-----------|----0----------------------0---------------------------|-----------------4----------------------1--------------|-------------------------------------------------------|
"You are the one..."
----------------------------------1--0---|----------3--------3--------3------------|-------2--------2--------2---------------|-----------------------------------------|----0--------0--------0--------0---------|-----------------------------------------|
----------------------------------1--0---|----------3--------3--------3------------|-------2--------2--------2---------------|----0--------0--------0--------0---------| X2-----------------------------------------|-----------------------------------------|
"Never thought...."
--------------1--0---------1--0-----------1--0-----------1--0-----|-----------3------------3--------------3--------------3-----------|--------2------------2--------------2--------------2--------------|-----0---------------------------0--------------------------------|------------------4-----------------------------1-----------------|------------------------------------------------------------------|
"Me and you baby..."
----------------------------------1--0---|----------3--------3--------3------------|-------2--------2--------2---------------|-----------------------------------------|----0--------0--------0--------0---------|-----------------------------------------|
----------------------------------1--0---|----------3--------3--------3------------|-------2--------2--------2---------------|----0--------0--------0--------0---------| X2-----------------------------------------|-----------------------------------------|
"My sweet Prince..."
-------------------------------------------------1-0---|-----------3-3------------------3--2----------3--------|-----------2-0------------------2--0-------2-----------|----0----------------------0---------------------------|-----------------4----------------------1--------------|-------------------------------------------------------|
"You are the one..."
----------------------------------1--0---|----------3--------3--------3------------|-------2--------2--------2---------------|-----------------------------------------|----0--------0--------0--------0---------|-----------------------------------------|
----------------------------------1--0---|----------3--------3--------3------------|-------2--------2--------2---------------|----0--------0--------0--------0---------| X4-----------------------------------------|-----------------------------------------|
"My sweet Prince..."
---------------------------------------------------|------------------------------3-2------------------|------------------------------2-0------------------|----0--------------------0-------------------------|-------------4-------------------------------1-----|---------------------------------------------------|
Tap to rate this tab
 
# A B C D E F G H I J K L M N O P Q R S T U V W X Y Z