Plain White Ts - Hate I Really Dont Like You Live tab

Intro Q=70 G# 4/4 Gtr I|-4-------------(4)-------------------------||-4-------------(4)-------------------------||-5-------------(5)-------------------------||-6-------------(6)-------------------------||-6-------------(6)-------------------------||-4-------------(4)-------------------------|
|
| Gtr II|-4-----------------------------------------||-4-----------------------------------------||-5-(x)-(x)-(x)-(x)-(x)-(x)-(x)-(x)-(x)-(x)-||-6-(x)-(x)-(x)-(x)-(x)-(x)-(x)-(x)-(x)-(x)-||-6-(x)-(x)-(x)-(x)-(x)-(x)-(x)-(x)-(x)-(x)-||-4-(x)-(x)-(x)-(x)-(x)-(x)-(x)-(x)-(x)-(x)-|
Little Faster Q=76 C#m F# B A|---------------------------|--------------------------||---------------------------|--------------------------||-6---6-6---6-6-------------|-4-4-4-4-4-4--------------||-6---6-6---6-6-4---4-4-4-4-|-4-4-4-4-4-4-2-2-2-2-2-2--||-4---4-4---4-4-4---4-4-4-4-|-2-2-2-2-2-2-2-2-2-2-2-2--||---------------2---2-2-2-2-|-------------0-0-0-0-0-0--|
|
|---------------------------|--------------------------||---------------------------|-----7-------9-7---5------||---------------------6-----|---8---8-----9-8---6------||-------6---------7---------|-9-------9----------------||-4-6s7---7-4-4s9-----------|--------------------------||---------------------------|--------------------------|
C#m F# B E|---------------------------|--------------------------||---------------------------|--------------------------||-6---6-6---6-6-------------|-4-4-4-4-4-4--------------||-6---6-6---6-6-4---4-4-4-4-|-4-4-4-4-4-4-2-2-2-2-2-2--||-4---4-4---4-4-4---4-4-4-4-|-2-2-2-2-2-2-2-2-2-2-2-2--||---------------2---2-2-2-2-|-------------0-0-0-0-0-0--|
|
| ~|---------------------------|--------------------------||---------------------------|-----7-------9-7---5------||---------------------6-----|---8---8-----9-8---6------||-------6---------7---------|-9-------9----------------||-4-6s7---7-4-4s9-----------|--------------------------||---------------------------|--------------------------|
Verse C#m F# B E|------4-----------2------|------2---------------------0------||------5-----------2------|------4---------------------0------||-6-6-(6)-x-x-----(3)-----|-4-4-(4)-(4)-(4)-(4)--------1------||-6-6-(6)-x-x-4-4-(4)-x-x-|-4-4-(4)-(4)-(4)-(4)-2-2-2-(2)-2-2-||-4-4-(4)-x-x-4-4-(4)-x-x-|-2-2-(2)-(2)-(2)-(2)-2-2-2-(2)-2-2-||-------------2-2-(2)-x-x-|---------------------0-0-0-(0)-0-0-|
|
|------4-----------2------|------2---------------------0------||------5-----------2------|------4---------------------0------||-6-6-(6)-x-x-----(3)-----|-4-4-(4)-(4)-(4)-(4)--------1------||-6-6-(6)-x-x-4-4-(4)-x-x-|-4-4-(4)-(4)-(4)-(4)-2-2-2-(2)-2-2-||-4-4-(4)-x-x-4-4-(4)-x-x-|-2-2-(2)-(2)-(2)-(2)-2-2-2-(2)-2-2-||-------------2-2-(2)-x-x-|---------------------0-0-0-(0)-0-0-|
C#m F# B E|------4-----------2------|------2---------------------0------||------5-----------2------|------4---------------------0------||-6-6-(6)-x-x-----(3)-----|-4-4-(4)-(4)-(4)-(4)--------1------||-6-6-(6)-x-x-4-4-(4)-x-x-|-4-4-(4)-(4)-(4)-(4)-2-2-2-(2)-2-2-||-4-4-(4)-x-x-4-4-(4)-x-x-|-2-2-(2)-(2)-(2)-(2)-2-2-2-(2)-2-2-||-------------2-2-(2)-x-x-|---------------------0-0-0-(0)-0-0-|
|
|------4-----------2------|------2---------------------0------||------5-----------2------|------4---------------------0------||-6-6-(6)-x-x-----(3)-----|-4-4-(4)-(4)-(4)-(4)--------1------||-6-6-(6)-x-x-4-4-(4)-x-x-|-4-4-(4)-(4)-(4)-(4)-2-2-2-(2)-2-2-||-4-4-(4)-x-x-4-4-(4)-x-x-|-2-2-(2)-(2)-(2)-(2)-2-2-2-(2)-2-2-||-------------2-2-(2)-x-x-|---------------------0-0-0-(0)-0-0-|
Pre-Chorus A G#|-----------------|------||-----------------|------||-----------------|-5----||-7-7-7-7-7-7-7-7-|-6----||-7-7-7-7-7-7-7-7-|-6----||-5-5-5-5-5-5-5-5-|-4----|
|
|-----------------|------||-----------------|------||-6-6-6-6-6-6-6-6-|-5----||-7-7-7-7-7-7-7-7-|-6----||-7-7-7-7-7-7-7-7-|-6----||-5-5-5-5-5-5-5-5-|-4----|
Chorus C#m E B A|---------------------------------|----------------------------------||---------------------------------|----------------------------------||-6-6-6-6-6-6-6-6-----------------|-4-4-4-4-4-4-4-4-2-2-2-2-2-2-2-2--||-6-6-6-6-6-6-6-6-2-2-2-2-2-2-2-2-|-4-4-4-4-4-4-4-4-2-2-2-2-2-2-2-2--||-4-4-4-4-4-4-4-4-2-2-2-2-2-2-2-2-|-2-2-2-2-2-2-2-2-0-0-0-0-0-0-0-0--||-----------------0-0-0-0-0-0-0-0-|----------------------------------|
|
|---------------------------------|----------------------------------||-9-9-9-9-9-9-9-9-9-9-9-9-9-9-9-9-|-7-7-7-7-7-7-7-7-5-5-5-5-5-5-5-5--||---------------------------------|----------------------------------||---------------------------------|----------------------------------||---------------------------------|----------------------------------||---------------------------------|----------------------------------|
C#m E B A|---------------------------------|----------------------------------||---------------------------------|----------------------------------||-6-6-6-6-6-6-6-6-----------------|-4-4-4-4-4-4-4-4-2-2-2-2-2-2-2-2--||-6-6-6-6-6-6-6-6-2-2-2-2-2-2-2-2-|-4-4-4-4-4-4-4-4-2-2-2-2-2-2-2-2--||-4-4-4-4-4-4-4-4-2-2-2-2-2-2-2-2-|-2-2-2-2-2-2-2-2-0-0-0-0-0-0-0-0--||-----------------0-0-0-0-0-0-0-0-|----------------------------------|
|
|---------------------------------|----------------------------------||-9-9-9-9-9-9-9-9-9-9-9-9-9-9-9-9-|-7-7-7-7-7-7-7-7-5-5-5-5-5-5-5-5--||---------------------------------|----------------------------------||---------------------------------|----------------------------------||---------------------------------|----------------------------------||---------------------------------|----------------------------------|
C#m F#m B G#|-----------------------------------------|----------------------------------||-----------------------------------------|----------------------------------||-6-6-6-6-6-6-6-6--2--2--2--2--2--2--2--2-|-4-4-4-4-4-4-4-4-5-5-5-5-5-5-5-5--||-6-6-6-6-6-6-6-6--4--4--4--4--4--4--4--4-|-4-4-4-4-4-4-4-4-6-6-6-6-6-6-6-6--||-4-4-4-4-4-4-4-4--4--4--4--4--4--4--4--4-|-2-2-2-2-2-2-2-2-6-6-6-6-6-6-6-6--||------------------2--2--2--2--2--2--2--2-|-----------------4-4-4-4-4-4-4-4--|
|
|-----------------------------------------|----------------------------------||-9-9-9-9-9-9-9-9S12-12-12-12-12-12-12-12-|-7-7-7-7-7-7-7-7-4-4-4-4-4-4-4-4--||-----------------------------------------|----------------------------------||-----------------------------------------|----------------------------------||-----------------------------------------|----------------------------------||-----------------------------------------|----------------------------------|
C#m E B 6/4|---------------------------------|------------------------------||-5-5-5-5-5-5-5-5-----------------|--4--4--4--4--4--4---4--------||-6-6-6-6-6-6-6-6-1-1-1-1-1-1-1-1-|--4--4--4--4--4--4---4--------||-6-6-6-6-6-6-6-6-2-2-2-2-2-2-2-2-|--4--4--4--4--4--4---4--------||-4-4-4-4-4-4-4-4-2-2-2-2-2-2-2-2-|--2--2--2--2--2--2---2--------||-----------------0-0-0-0-0-0-0-0-|------------------------------|
|
|-----------------7-7-7-7-7-7-7-7-|----11----11----11\-----------||-9-9-9-9-9-9-9-9-9-9-9-9-9-9-9-9-|-12-12-12-12-12-12\-12\-------||---------------------------------|-11----11----11-----11\-------||---------------------------------|------------------------------||---------------------------------|------------------------------||---------------------------------|------------------------------|
Pre-Verse C#m F# B E 4/4|-------------------------|-------------------------||-------------------------|-------------------------||-6-6-6---6-6-------------|-4-4-4-4-4-4-------------||-6-6-6---6-6-4---4-4-4-4-|-4-4-4-4-4-4-2-2-2-2-2-2-||-4-4-4---4-4-4---4-4-4-4-|-2-2-2-2-2-2-2-2-2-2-2-2-||-------------2---2-2-2-2-|-------------0-0-0-0-0-0-|
|
| ~|-------------------------|-------------------------||-------------------------|-----7-------9-7---5-----||-------------------6-----|---8---8-----9-8---6-----||-----6---------7---------|-9-------9---------------||-4-7---7-4---9-----------|-------------------------||-------------------------|-------------------------|
C#m F# B E|-----------------------------|--------------------------||-----------------------------|--------------------------||-6---6-6---6-6---------------|-4-4-4-4-4-4--------------||-6---6-6---6-6---4---4-4-4-4-|-4-4-4-4-4-4-2-2-2-2-2-2--||-4---4-4---4-4---4---4-4-4-4-|-2-2-2-2-2-2-2-2-2-2-2-2--||-----------------2---2-2-2-2-|-------------0-0-0-0-0-0--|
|
|-----------------------------|--------------------------||-----------------------------|-----7-------9-7---5------||-----------------------6-----|---8---8-----9-8---6------||-------6-----------7---------|-9-------9----------------||-4-4s7---7-4---4S9-----------|--------------------------||-----------------------------|--------------------------|
Verse C#m F# B E|------4-----------2------|------2---------------------0------||------5-----------2------|------4---------------------0------||-6-6-(6)-x-x-----(3)-----|-4-4-(4)-(4)-(4)-(4)--------1------||-6-6-(6)-x-x-4-4-(4)-x-x-|-4-4-(4)-(4)-(4)-(4)-2-2-2-(2)-2-2-||-4-4-(4)-x-x-4-4-(4)-x-x-|-2-2-(2)-(2)-(2)-(2)-2-2-2-(2)-2-2-||-------------2-2-(2)-x-x-|---------------------0-0-0-(0)-0-0-|
|
|------4-----------2------|------2---------------------0------||------5-----------2------|------4---------------------0------||-6-6-(6)-x-x-----(3)-----|-4-4-(4)-(4)-(4)-(4)--------1------||-6-6-(6)-x-x-4-4-(4)-x-x-|-4-4-(4)-(4)-(4)-(4)-2-2-2-(2)-2-2-||-4-4-(4)-x-x-4-4-(4)-x-x-|-2-2-(2)-(2)-(2)-(2)-2-2-2-(2)-2-2-||-------------2-2-(2)-x-x-|---------------------0-0-0-(0)-0-0-|
C#m F# B E|------4-----------2------|------2---------------------0------||------5-----------2------|------4---------------------0------||-6-6-(6)-x-x-----(3)-----|-4-4-(4)-(4)-(4)-(4)--------1------||-6-6-(6)-x-x-4-4-(4)-x-x-|-4-4-(4)-(4)-(4)-(4)-2-2-2-(2)-2-2-||-4-4-(4)-x-x-4-4-(4)-x-x-|-2-2-(2)-(2)-(2)-(2)-2-2-2-(2)-2-2-||-------------2-2-(2)-x-x-|---------------------0-0-0-(0)-0-0-|
|
|------4-----------2------|------2---------------------0------||------5-----------2------|------4---------------------0------||-6-6-(6)-x-x-----(3)-----|-4-4-(4)-(4)-(4)-(4)--------1------||-6-6-(6)-x-x-4-4-(4)-x-x-|-4-4-(4)-(4)-(4)-(4)-2-2-2-(2)-2-2-||-4-4-(4)-x-x-4-4-(4)-x-x-|-2-2-(2)-(2)-(2)-(2)-2-2-2-(2)-2-2-||-------------2-2-(2)-x-x-|---------------------0-0-0-(0)-0-0-|
Pre-Chorus A G#|-----------------|------||-----------------|------||-----------------|-5----||-7-7-7-7-7-7-7-7-|-6----||-7-7-7-7-7-7-7-7-|-6----||-5-5-5-5-5-5-5-5-|-4----|
|
|-----------------|------||-----------------|------||-6-6-6-6-6-6-6-6-|-5----||-7-7-7-7-7-7-7-7-|-6----||-7-7-7-7-7-7-7-7-|-6----||-5-5-5-5-5-5-5-5-|-4----|
Chorus C#m E B A|---------------------------------|----------------------------------||---------------------------------|----------------------------------||-6-6-6-6-6-6-6-6-----------------|-4-4-4-4-4-4-4-4-2-2-2-2-2-2-2-2--||-6-6-6-6-6-6-6-6-2-2-2-2-2-2-2-2-|-4-4-4-4-4-4-4-4-2-2-2-2-2-2-2-2--||-4-4-4-4-4-4-4-4-2-2-2-2-2-2-2-2-|-2-2-2-2-2-2-2-2-0-0-0-0-0-0-0-0--||-----------------0-0-0-0-0-0-0-0-|----------------------------------|
|
|---------------------------------|----------------------------------||-9-9-9-9-9-9-9-9-9-9-9-9-9-9-9-9-|-7-7-7-7-7-7-7-7-5-5-5-5-5-5-5-5--||---------------------------------|----------------------------------||---------------------------------|----------------------------------||---------------------------------|----------------------------------||---------------------------------|----------------------------------|
C#m E B A|---------------------------------|----------------------------------||---------------------------------|----------------------------------||-6-6-6-6-6-6-6-6-----------------|-4-4-4-4-4-4-4-4-2-2-2-2-2-2-2-2--||-6-6-6-6-6-6-6-6-2-2-2-2-2-2-2-2-|-4-4-4-4-4-4-4-4-2-2-2-2-2-2-2-2--||-4-4-4-4-4-4-4-4-2-2-2-2-2-2-2-2-|-2-2-2-2-2-2-2-2-0-0-0-0-0-0-0-0--||-----------------0-0-0-0-0-0-0-0-|----------------------------------|
|
|---------------------------------|----------------------------------||-9-9-9-9-9-9-9-9-9-9-9-9-9-9-9-9-|-7-7-7-7-7-7-7-7-5-5-5-5-5-5-5-5--||---------------------------------|----------------------------------||---------------------------------|----------------------------------||---------------------------------|----------------------------------||---------------------------------|----------------------------------|
C#m F#m B G#|-----------------------------------------|----------------------------------||-----------------------------------------|----------------------------------||-6-6-6-6-6-6-6-6--2--2--2--2--2--2--2--2-|-4-4-4-4-4-4-4-4-5-5-5-5-5-5-5-5--||-6-6-6-6-6-6-6-6--4--4--4--4--4--4--4--4-|-4-4-4-4-4-4-4-4-6-6-6-6-6-6-6-6--||-4-4-4-4-4-4-4-4--4--4--4--4--4--4--4--4-|-2-2-2-2-2-2-2-2-6-6-6-6-6-6-6-6--||------------------2--2--2--2--2--2--2--2-|-----------------4-4-4-4-4-4-4-4--|
|
|-----------------------------------------|----------------------------------||-9-9-9-9-9-9-9-9S12-12-12-12-12-12-12-12-|-7-7-7-7-7-7-7-7-4-4-4-4-4-4-4-4--||-----------------------------------------|----------------------------------||-----------------------------------------|----------------------------------||-----------------------------------------|----------------------------------||-----------------------------------------|----------------------------------|
C#m E B|---------------------------------|--------------------------||-5-5-5-5-5-5-5-5-----------------|--4--4--4--4--4--4--(4)---||-6-6-6-6-6-6-6-6-1-1-1-1-1-1-1-1-|--4--4--4--4--4--4--(4)---||-6-6-6-6-6-6-6-6-2-2-2-2-2-2-2-2-|--4--4--4--4--4--4--(4)---||-4-4-4-4-4-4-4-4-2-2-2-2-2-2-2-2-|--2--2--2--2--2--2--(2)---||-----------------0-0-0-0-0-0-0-0-|--------------------------|
|
|-----------------7-7-7-7-7-7-7-7-|----11----11----11\-------||-9-9-9-9-9-9-9-9-9-9-9-9-9-9-9-9-|-12-12-12-12-12-12\-12\---||---------------------------------|-11----11----11-----11\---||---------------------------------|--------------------------||---------------------------------|--------------------------||---------------------------------|--------------------------|
Bridge F#m G#|-----------------|-----------------||-----------------|-----------------||-2-2-2-2-2-2-2-2-|-5-5-5-5-5-5-5-5-||-4-4-4-4-4-4-4-4-|-6-6-6-6-6-6-6-6-||-4-4-4-4-4-4-4-4-|-6-6-6-6-6-6-6-6-||-2-2-2-2-2-2-2-2-|-4-4-4-4-4-4-4-4-|
|
|-----------------|-----------------||-----------------|-----------------||-2-2-2-2-2-2-2-2-|-5-5-5-5-5-5-5-5-||-4-4-4-4-4-4-4-4-|-6-6-6-6-6-6-6-6-||-4-4-4-4-4-4-4-4-|-6-6-6-6-6-6-6-6-||-2-2-2-2-2-2-2-2-|-4-4-4-4-4-4-4-4-|
F#m G#|-----------------|-----------------------4-4-4-4\-||-----------------|-------------------4-4-4-4-4-4\-||-2-2-2-2-2-2-2-2-|-5-5-5-5-(5)-5-5-5-5-5-5-5-5-5\-||-4-4-4-4-4-4-4-4-|-6-6-6-6-(6)-6-6-6-6-6-6-6-6-6\-||-4-4-4-4-4-4-4-4-|-6-6-6-6-(6)-6-6-6-6-6-6-6-6-6\-||-2-2-2-2-2-2-2-2-|-4-4-4-4-(4)-4-4-4-4-4-4-4-4-4\-|
|
|-----------------|-----------------------4-4-4-4\-||-----------------|-------------------4-4-4-4-4-4\-||-2-2-2-2-2-2-2-2-|-5-5-5-5-----5-5-5-5-5-5-5-5-5\-||-4-4-4-4-4-4-4-4-|-6-6-6-6-----6-6-6-6-6-6-6-6-6\-||-4-4-4-4-4-4-4-4-|-6-6-6-6-----6-6-6-6-6-6-6-6-6\-||-2-2-2-2-2-2-2-2-|-4-4-4-4-----4-4-4-4-4-4-4-4-4\-|
Breakdown C#m F# B E|---------------------------|--------------------------||---------------------------|--------------------------||-6---6-6---6-6-------------|-4-4-4-4-4-4--------------||-6---6-6---6-6-4---4-4-4-4-|-4-4-4-4-4-4-2-2-2-2-2-2--||-4---4-4---4-4-4---4-4-4-4-|-2-2-2-2-2-2-2-2-2-2-2-2--||---------------2---2-2-2-2-|-------------0-0-0-0-0-0--|
|
| ~|---------------------------|--------------------------||---------------------------|-----7-------9-7---5------||---------------------6-----|---8---8-----9-8---6------||-------6---------7---------|-9-------9----------------||-4-6s7---7-4-4s9-----------|--------------------------||---------------------------|--------------------------|
C#m F# B E|---------------------------|--------------------------||---------------------------|--------------------------||-6---6-6---6-6-------------|-4-4-4-4-4-4--------------||-6---6-6---6-6-4---4-4-4-4-|-4-4-4-4-4-4-2-2-2-2-2-2--||-4---4-4---4-4-4---4-4-4-4-|-2-2-2-2-2-2-2-2-2-2-2-2--||---------------2---2-2-2-2-|-------------0-0-0-0-0-0--|
|
| ~|---------------------------|--------------------------||---------------------------|-----7-------9-7---5------||---------------------6-----|---8---8-----9-8---6------||-------6---------7---------|-9-------9----------------||-4-6s7---7-4-4s9-----------|--------------------------||---------------------------|--------------------------|
C#m F# B E|---------------------------|--------------------------||---------------------------|--------------------------||-6---6-6---6-6-------------|-4-4-4-4-4-4--------------||-6---6-6---6-6-4---4-4-4-4-|-4-4-4-4-4-4-2-2-2-2-2-2--||-4---4-4---4-4-4---4-4-4-4-|-2-2-2-2-2-2-2-2-2-2-2-2--||---------------2---2-2-2-2-|-------------0-0-0-0-0-0--|
|
| ~|---------------------------|--------------------------||---------------------------|-----7-------9-7---5------||---------------------6-----|---8---8-----9-8---6------||-------6---------7---------|-9-------9----------------||-4-6s7---7-4-4s9-----------|--------------------------||---------------------------|--------------------------|
C#m F# B E|---------------------------|--------------------------||---------------------------|--------------------------||-6---6-6---6-6-------------|-4-4-4-4-4-4--------------||-6---6-6---6-6-4---4-4-4-4-|-4-4-4-4-4-4-2-2-2-2-2-2--||-4---4-4---4-4-4---4-4-4-4-|-2-2-2-2-2-2-2-2-2-2-2-2--||---------------2---2-2-2-2-|-------------0-0-0-0-0-0--|
|
| ~|---------------------------|--------------------------||---------------------------|-----7-------9-7---5------||---------------------6-----|---8---8-----9-8---6------||-------6---------7---------|-9-------9----------------||-4-6s7---7-4-4s9-----------|--------------------------||---------------------------|--------------------------|
Pre-Chorus A G#|-----------------|-4--------|---------------------------||-----------------|-4--------|---------------------------||-6-6-6-6-6-6-6-6-|-5--------|-x-x-x-x-x-x-x-x-x-x-x-x---||-7-7-7-7-7-7-7-7-|-6--------|-x-x-x-x-x-x-x-x-x-x-x-x---||-7-7-7-7-7-7-7-7-|-6--------|-x-x-x-x-x-x-x-x-x-x-x-x---||-5-5-5-5-5-5-5-5-|-4--------|-x-x-x-x-x-x-x-x-x-x-x-x---|
|
|-----------------|-4--------|---------------------------||-----------------|-4--------|---------------------------||-2-2-2-2-2-2-2-2-|-5--------|-x-x-x-x-x-x-x-x-x-x-x-x---||-2-2-2-2-2-2-2-2-|-6--------|-x-x-x-x-x-x-x-x-x-x-x-x---||-0-0-0-0-0-0-0-0-|-6--------|-x-x-x-x-x-x-x-x-x-x-x-x---||-----------------|-4--------|-x-x-x-x-x-x-x-x-x-x-x-x---|
Out-Chorus C#m E B A|---------------------------------|----------------------------------||---------------------------------|----------------------------------||-6-6-6-6-6-6-6-6-----------------|-4-4-4-4-4-4-4-4-2-2-2-2-2-2-2-2--||-6-6-6-6-6-6-6-6-2-2-2-2-2-2-2-2-|-4-4-4-4-4-4-4-4-2-2-2-2-2-2-2-2--||-4-4-4-4-4-4-4-4-2-2-2-2-2-2-2-2-|-2-2-2-2-2-2-2-2-0-0-0-0-0-0-0-0--||-----------------0-0-0-0-0-0-0-0-|----------------------------------|
|
|---------------------------------|----------------------------------||-9-9-9-9-9-9-9-9-9-9-9-9-9-9-9-9-|-7-7-7-7-7-7-7-7-5-5-5-5-5-5-5-5--||---------------------------------|----------------------------------||---------------------------------|----------------------------------||---------------------------------|----------------------------------||---------------------------------|----------------------------------|
C#m E B A|---------------------------------|----------------------------------||---------------------------------|----------------------------------||-6-6-6-6-6-6-6-6-----------------|-4-4-4-4-4-4-4-4-2-2-2-2-2-2-2-2--||-6-6-6-6-6-6-6-6-2-2-2-2-2-2-2-2-|-4-4-4-4-4-4-4-4-2-2-2-2-2-2-2-2--||-4-4-4-4-4-4-4-4-2-2-2-2-2-2-2-2-|-2-2-2-2-2-2-2-2-0-0-0-0-0-0-0-0--||-----------------0-0-0-0-0-0-0-0-|----------------------------------|
|
|---------------------------------|----------------------------------||-9-9-9-9-9-9-9-9-9-9-9-9-9-9-9-9-|-7-7-7-7-7-7-7-7-5-5-5-5-5-5-5-5--||---------------------------------|----------------------------------||---------------------------------|----------------------------------||---------------------------------|----------------------------------||---------------------------------|----------------------------------|
C#m F#m B G#|-----------------------------------------|----------------------------------||-----------------------------------------|----------------------------------||-6-6-6-6-6-6-6-6--2--2--2--2--2--2--2--2-|-4-4-4-4-4-4-4-4-5-5-5-5-5-5-5-5--||-6-6-6-6-6-6-6-6--4--4--4--4--4--4--4--4-|-4-4-4-4-4-4-4-4-6-6-6-6-6-6-6-6--||-4-4-4-4-4-4-4-4--4--4--4--4--4--4--4--4-|-2-2-2-2-2-2-2-2-6-6-6-6-6-6-6-6--||------------------2--2--2--2--2--2--2--2-|-----------------4-4-4-4-4-4-4-4--|
|
|-----------------------------------------|----------------------------------||-9-9-9-9-9-9-9-9S12-12-12-12-12-12-12-12-|-7-7-7-7-7-7-7-7-4-4-4-4-4-4-4-4--||-----------------------------------------|----------------------------------||-----------------------------------------|----------------------------------||-----------------------------------------|----------------------------------||-----------------------------------------|----------------------------------|
C#m E B|---------------------------------|------------------------------||-5-5-5-5-5-5-5-5-----------------|--4--4--4--4--4--4--4-----4---||-6-6-6-6-6-6-6-6-1-1-1-1-1-1-1-1-|--4--4--4--4--4--4--4-----4---||-6-6-6-6-6-6-6-6-2-2-2-2-2-2-2-2-|--4--4--4--4--4--4--4-----4---||-4-4-4-4-4-4-4-4-2-2-2-2-2-2-2-2-|--2--2--2--2--2--2--2-----2---||-----------------0-0-0-0-0-0-0-0-|------------------------------|
|
|-----------------7-7-7-7-7-7-7-7-|----11----11----11------(11)--||-9-9-9-9-9-9-9-9-9-9-9-9-9-9-9-9-|-12-12-12-12-12-12-12-x-(12)--||---------------------------------|-11----11----11----11-x-------||---------------------------------|------------------------------||---------------------------------|------------------------------||---------------------------------|------------------------------|
Outro C#m F# B E|---------------------------|--------------------------||---------------------------|--------------------------||-6---6-6---6-6-------------|-4-4-4-4-4-4--------------||-6---6-6---6-6-4---4-4-4-4-|-4-4-4-4-4-4-2-2-2-2-2-2--||-4---4-4---4-4-4---4-4-4-4-|-2-2-2-2-2-2-2-2-2-2-2-2--||---------------2---2-2-2-2-|-------------0-0-0-0-0-0--|
|
| ~|---------------------------|--------------------------||---------------------------|-----7-------9-7---5------||---------------------6-----|---8---8-----9-8---6------||-------6---------7---------|-9-------9----------------||-4-6s7---7-4-4s9-----------|--------------------------||---------------------------|--------------------------|
C#m F# B E|---------------------------|--------------------------||---------------------------|--------------------------||-6---6-6---6-6-------------|-4-4-4-4-4-4--------------||-6---6-6---6-6-4---4-4-4-4-|-4-4-4-4-4-4-2-2-2-2-2-2--||-4---4-4---4-4-4---4-4-4-4-|-2-2-2-2-2-2-2-2-2-2-2-2--||---------------2---2-2-2-2-|-------------0-0-0-0-0-0--|
|
| ~|---------------------------|--------------------------||---------------------------|-----7-------9-7---5------||---------------------6-----|---8---8-----9-8---6------||-------6---------7---------|-9-------9----------------||-4-6s7---7-4-4s9-----------|--------------------------||---------------------------|--------------------------|
C#m F# B E|---------------------------|--------------------------||---------------------------|--------------------------||-6---6-6---6-6-------------|-4-4-4-4-4-4--------------||-6---6-6---6-6-4---4-4-4-4-|-4-4-4-4-4-4-2-2-2-2-2-2--||-4---4-4---4-4-4---4-4-4-4-|-2-2-2-2-2-2-2-2-2-2-2-2--||---------------2---2-2-2-2-|-------------0-0-0-0-0-0--|
|
| ~|---------------------------|--------------------------||---------------------------|-----7-------9-7---5------||---------------------6-----|---8---8-----9-8---6------||-------6---------7---------|-9-------9----------------||-4-6s7---7-4-4s9-----------|--------------------------||---------------------------|--------------------------|
C#m F# B E|---------------------------|--------------------------||---------------------------|--------------------------||-6---6-6---6-6-------------|-4-4-4-4-4-4--------------||-6---6-6---6-6-4---4-4-4-4-|-4-4-4-4-4-4-2-2-2-2-2-2--||-4---4-4---4-4-4---4-4-4-4-|-2-2-2-2-2-2-2-2-2-2-2-2--||---------------2---2-2-2-2-|-------------0-0-0-0-0-0--|
|
| ~|---------------------------|--------------------------||---------------------------|-----7-------9-7---5------||---------------------6-----|---8---8-----9-8---6------||-------6---------7---------|-9-------9----------------||-4-6s7---7-4-4s9-----------|--------------------------||---------------------------|--------------------------|
Guitar Break Ritard...not retard >.> =Slower Q=70|------------------------|----------------------||-5----------------------|----------------------||-6----------------------|----------------------||-6----------------------|----------------------||-4----------------------|----------------------||------------------------|----------------------|
|
| ~|------------------------|----------------------||------------------------|-----7------9-7--5----||--------------------6---|---8---8----9-8--6----||-------6---------7------|-9-------9------------||-4-6s7---7-4-4s9--------|----------------------||------------------------|----------------------|
H.=H ~ ~|------------------------|----------------------*||------------------------|-----7------9-7--5----*||--------------------6---|---8---8----9-8--6----*||-------6---------7------|-9-------9------------*||-4-6s7---7-4-4s9--------|----------------------*||------------------------|----------------------*|
-------------------------------------------------------------------------------- Tablature Legend ---------------- h - hammer-on p - pull-off b - bend pb - pre-bend r - bend release (if no number after the r, then release immediately) /\ - slide into or out of (from/to "nowhere") s - legato slide S - shift slide - natural harmonic [n] - artificial harmonic n(n) - tapped harmonic ~ - vibrato tr - trill T - tap TP - trem. picking PM - palm muting \n/ - tremolo bar dip; n = amount to dip \n - tremolo bar down n/ - tremolo bar up /n\ - tremolo bar inverted dip = - hold bend; also acts as connecting device for hammers/pulls <> - volume swell (louder/softer) x - on rhythm slash represents muted slash o - on rhythm slash represents single note slash
Tap to rate this tab
 
# A B C D E F G H I J K L M N O P Q R S T U V W X Y Z