Follow Me tab with lyrics by Pod - Easy chords and tabs for guitar

Pod – Follow Me tab

Band- Pod
Song- Follow Me

TUNING: drop d (D,A,D,G,B,E) 
 
 
        ^ = bend 
 
 
      INTRO PART A: 
 
|------------------------------------------------------------| |------------------------------------------------------------| |------------------------------------------------------------| |-2-2-2--2-3----2-2-2--2-3----2-2-2--2-3----2-2-2--2-5\3-----| |-2-2-2--2---3--2-2-2--2---3--2-2-2--2---3--2-2-2--2-----5\3-| |-2-2-2--2------2-2-2--2------2-2-2--2------2-2-2--2---------|
INTRO PART B:
|----------------| |----------------| |-9-9--9--9-9--9-| |-9-9--9--9-9--9-| |-7-7--7--7-7--7-| |----------------|
RIFF A:
|----------------------------------| |----------------------------------| |----------------------------------| |-2-2-2--2--------2-2-2--2-x-x-x-x-| |-2-2-2--2-7-5-7--2-2-2--2-x-x-x-x-| |-2-2-2--2--------2-2-2--2-x-x-x-x-|
|--------------------------------------| |--------------------------------------| |--------------------------------------| |-2-2-2--2--------2-2-2--2-x-x-x-x-x-x-| |-2-2-2--2-7-5-7--2-2-2--2-x-x-x-x-x-x-| |-2-2-2--2--------2-2-2--2-x-x-x-x-x-x-|
FILL: (before verse)
|---| |---| |---| |-2-| |-2-| |-2-|
RIFF B:
|--------------------------------| |--------------------------------| |--------------------------------| |-2-2-2--2------2-2-2--2---------| |-2-2-2--2-7^7--2-2-2--2-7-5-7-5-| |-2-2-2--2------2-2-2--2---------|
RIFF C:
|-------------------------| |-------------------------| |-------------9-9---------| |-2-2-x-x-x-x-9-9-x-x-x-x-| |-2-2-x-x-x-x-7-7-x-x-x-x-| |-2-2-x-x-x-x-----x-x-x-x-|
RIFF D:
|-----------------| |-----------------| |-9--------7-4--4-| |-9-2-2--2-7-4--4-| |-7-2-2--2-5-2--2-| |---2-2--2--------|
Please rate this tab:
x1.0