Poison - Cry Tough tab

======================================


Cry tough
                          
intro -

E |------|------|------------------|--------0-----------0-----||------|------|------------------|-----0-----0-----0-----0--||------|------|-drums------------|--------------1-----------||------|------|------------------|--------------------------||------|------|------------------|--------------------------||------|------|------------------|--0-----------------------|
Asus2 -----------0--------0-----|--------0-----------0-----|--------0--------0-----0--|-----0-----0-----0-----0--|-----1--------1-----------|--------------2-----------|--2-----------------------|--------------------------|--------------------------|--0-----------------------|--------------------------|--------------------------|
B7sus2 --------0-----------0-----|-----0-----0-----0-----0--|--------------2-----------|--------------------------|--2-----------------------|--------------------------|
guitar 3 well this chord for intro|---------------------|-------------------|------------------||---------------------|-------------------|------------------||--21/1---------------|--1----------------|------------------||--21/2---------------|--2---4---7--------|------------------||--19/2---------------|--2---4---7--------|------------------||-----0---------------|--0---2---5--------|------------------|
verse:- then pluggin goes on as intro E changes to power chord n the last chord changes
------------------------------------------------------|------------------------------------------------------|------------------------------------------------------|---2----------------7----------------9----------------|---2----------------7----------------9----------------|---0----------------5----------------7----------------|
pre-chorus:-
here the pre -chorus startsplugin E |--------------------------0-----------0-----||-----------------------0-----0-----0-----0--||--------------------------------1-----------||--------------------------------------------||--------------------------------------------||----------------0---------------------------|
--------0-----------0-----|----|----0------0----------------0-----------0--------|-----0-----0-----0-----0--|----|---0--0--0---0-----------0-----0-----0-----0-----|--1-----------1-----------|----|-2-----2---------------2----------2-----------2--|--------------------------|----|-------------------------------------------------|--------------------------|----|-------------------------------------------------|--------------------------|----|-------------------------------------------------|
guitar 2pluggin stops |---------------------||---------------------||---------------------||--4----4----------7--||--4----4----------7--||--2----2----------5--|
here continues pluugin--------------------|-------------------------|-------------------------|-----------------0--|-------------------------|-------------------------|-----------------1--|-------------------------|-------------------------|------7----------2--|-------------------------|-------------------------|------7-------------|-------------------------|-------------------------|------5-------------|----0--0--0--0--0--0--0--|--0--0--0--0--0--0--0----|
pluggin here again continues---------------------|--------------------|------------------|---------------------|--------------------|------------------|---------------------|--------------------|------------------|--4----4----------7--|------7----------9--|------------------|--4----4----------7--|------7----------9--|------------------|--2----2----------5--|------5----------7--|------------------|
chorus back to intro's both guitar riff
|-------------------|------------------||-------------------|------------------||--1----------------|------------------||--2---4---7--------|------------------||--2---4---7--------|------------------||--0---2---5--------|------------------|
chorus:- |--------0-----------0-----|--------0-----------0-----||-----0-----0-----0-----0--|-----0-----0-----0-----0--||--------------1-----------|--------------2-----------||--------------------------|--------------------------||--------------------------|--------------------------||--0-----------------------|--2-----------------------|
--------0-----------0-----|--------0-----------0-----|-----0-----0-----0-----0--|-----0-----0-----0-----0--|--------------2-----------|--------------2-----------|--------------------------|--------------------------|--0-----------------------|--2-----------------------|--------------------------|--------------------------|
|--------0-----------0-----|--------0-----------0-----||-----0-----0-----0-----0--|-----0-----0-----0-----0--||--------------1-----------|--------------2-----------||--------------------------|--------------------------||--------------------------|--------------------------||--0-----------------------|--2-----------------------|
--------0-----------0-----|--------0-----------0-----|-----0-----0-----0-----0--|-----0-----0-----0-----0--|--------------2-----------|--------------2-----------|--------------------------|--------------------------|--0-----------------------|--2-----------------------|--------------------------|--------------------------|
verse 2 n chorus same BRIDGE:-
at the last para ofchorus before bridgechord changeslike this.-------------------|-------------------|--------------------|-------------------|-------------------|--------------------|--2----------------|--4----------------|--9~~---------------|--2----------------|--4----------------|--11~---------------|--0----------------|--2----------------|--11~---------------|-------------------|-------------------|--9~~---------------|
---------------------|-------------------|--------------------|---------------------|-------------------|--------------------|---------------------|-------------------|--------------------|----------11----9----|--7----------------|----------7----6----|----------11----9----|--7----------------|----------7----6----|----------9-----7----|--5----------------|----------5----4----|
-------------------|------------------|-------------------|-------------------|------------------|-------------------|-------------------|------------------|-------------------|--4----------------|------------------|--9----------------|--4----------------|------------------|--9----------------|--2----------------|------------------|--7----------------|
now solo:-
-----------------------|------------------------|--------------7/---|--9--9----7------------|--9~-------9p-7h-9/-12~-|-------------------|---------------9--9----|------------------------|-------------------|-----------------------|------------------------|-------------------|-----------------------|------------------------|-------------------|-----------------------|------------------------|-------------------|
--0--------------------------|----------------------------|--10--10--9--9--7--7--9--10--|--10--10--9--9--7--7--9--9/-|--9---9---9--9--9--9--9--9---|--9---9---9--9--9--9--9--9--|-----------------------------|----------------------------|-----------------------------|----------------------------|-----------------------------|----------------------------|
--------19--------19/-------|--------------------|--19b-------19b-------------|--------------12/---|------------------------16~-|--------------------|----------------------------|--------------------|----------------------------|--------------------|----------------------------|--------------------|
------------------------14--16--17--|--19b-----19b---19b---19--|--0-------------16--17--------------|--------------------------|--16-16-16--18----------------------|--------------------------|------------------------------------|--------------------------|------------------------------------|--------------------------|------------------------------------|--------------------------|
--------------------|------------------|------------------|------------------|--17----------------|------------------|------------------|------------------|--------------------|------------------|------------------|------------------|--------------------|------------------|------------------|------------------|--------------------|------------------|------------------|------------------|--------------------|------------------|------------------|------------------|
outro:-
--19p16----16-19p16----16-19p16----16-19p16----16-|--------17----------17----------17----------17----|--------------------------------------------------|--------------------------------------------------|--------------------------------------------------|--------------------------------------------------|
--19p16----16-19p16----16-19p16----16-19p16----16-|--------17----------17----------17----------17----|--------------------------------------------------|--------------------------------------------------|--------------------------------------------------|--------------------------------------------------|
--19p16----16-19p16----16-19p16----16-19p16----16-|--------17----------17----------17----------17----|--------------------------------------------------|--------------------------------------------------|--------------------------------------------------|--------------------------------------------------|
--19p16----16-19p16----16-19p16----16-19p16----16-|--------17----------17----------17----------17----|--------------------------------------------------|--------------------------------------------------|--------------------------------------------------|--------------------------------------------------|
--19p16----16-19p16----16-19p16----16-19p16----16-|--------17----------17----------17----------17----|--------------------------------------------------|--------------------------------------------------|--------------------------------------------------|--------------------------------------------------|
--19p16----16-19p16----16-19p16----16-19p16----16-||--------17----------17----------17----------17----||--------------------------------------------------||--------------------------------------------------||--------------------------------------------------||--------------------------------------------------||
|------------------------|--------------7/---||--9~-------9p-7h-9/-12~-|-------------------||------------------------|-------------------||------------------------|-------------------||------------------------|-------------------||------------------------|-------------------|
--0--------------------------|----------------------------|--10--10--9--9--7--7--9--10--|--10--10--9--9--7--7--9--9/-|--9---9---9--9--9--9--9--9---|--9---9---9--9--9--9--9--9--|-----------------------------|----------------------------|-----------------------------|----------------------------|-----------------------------|----------------------------|
----19---19---19---19------------------------------|-19b--19b--19b--19b--------------------------------|---------------------------------------------------|---------------------------------------------------|---------------------------------------------------|---------------------------------------------------|
--0--------------------------|----------------------------|--10--10--9--9--7--7--9--10--|--10--10--9--9--7--7--9--9/-|--9---9---9--9--9--9--9--9---|--9---9---9--9--9--9--9--9--|-----------------------------|----------------------------|-----------------------------|----------------------------|-----------------------------|----------------------------|
Tap to rate this tab
 
# A B C D E F G H I J K L M N O P Q R S T U V W X Y Z