Poison - Nothing But A Good Time tab

Nothin' But a Good Time
Poison
from the 1988 album, "Open Up and Say... Ahh!"

Transcribed by Juan Nakamoto (ridethesky@latinmail.com) 
Tune down 1/2 step

Intro Rhy.Fig 1Eb||----------|---------------------------------------|Bb||----------|----------15---14---15---14------------|Gb||-----14---|--14------14---14---14---14---0---14---|Db||-----14---|--14--------------------------0---14---|Ab||------0---|---0-----------------------------------|Eb||----------|---------------------------------------|
|------------------------------------|----------------------------||-----------------------14-----------|------------------------3---||--------------14--14---14---0---0---|--(0)-------------------2---||-----14--14---14h-16--------0---0---|--(0)-------------------0---||-----15h-16-------------------------|----------------------------||------------------------------------|----------------------------|
|----------------------------||---3------------------------||---2-------------------14---||---0-------------------14---||------------------------0---||----------------------------| End Rhy.fig 1
Repeat Rhy.fig 1 twice
Guitar 1|------------------------------------------||-------------15---14---15---14------------||---14--------14---14---14---14---0---14---||---14----------------------------0---14---||----0-------------------------------------||------------------------------------------|
|Guitar 2 (Overdub)|------------------------------------------||-------------------------------------14---||---14---14---14---14---------14------14---||---14---14---16---14----14---14-----------||----0----0--------------16----------------||------------------------------------------|
Guitar 1 |-----------------------------------|--------------------------------||----------------------14-----------|--------------------------3-----||-------------14--14---14---0---0---|--------------------------2-----||----14--14---14h-16--------0---0---|--------------------------0-----||----15h-16-------------------------|--------------------------------||-----------------------------------|--------------------------------|
|Guitar 2 |-----------------------------------|--------15----14---15-----------||----------------------14-----------|--------15----15---15-----3-----||-------------14--14---14--14---0---|---0----------------------2-----||----14--15---14h-16-------14---0---|---0----------------------0-----||----15h-16-------------------------|--------------------------------||-----------------------------------|--------------------------------|
Guitar 1 |--------------------------------||---3----------------------------||---2-----------------------2----||---0-----------------------2----||---------------------------0----||--------------------------------|
|Guitar 2 |--------------------------------||--------------------------------||-------------7b(9)--r7--/6------||---------7------------------7---||--------------------------------||--------------------------------|
Verse 1 Rhy fig 2|----------------------|--------------------------------||----------------------|----14---15-----15---14---------||---2------------------|----14---14-----14---14-----0---||---2------------------|----------------------------0---||---0------------------|--------------------------------||----------------------|--------------------------------| Not a dime, I can't .....
|----------------------|-------------------------------------||-------------------3--|--(3)--------------------------------||-------------------2--|--(2)-----------------------x---14---||-------------------0--|--(0)-----------------------x---14---||----------------------|----------------------------x----0---||----------------------|-------------------------------------|
|----------------------|--------------------------------||----------------------|----14---15-----15---14---------||--14\-----------------|----14---14-----14---14-----0---||--14\-----------------|----------------------------0---||---0\-----------------|--------------------------------||----------------------|--------------------------------|
|----------------------|-------------------------------------||-------------------3--|--(3)--------------------------------||-------------------2--|--(2)-----------------------x---14---||-------------------0--|--(0)-----------------------x---14---||----------------------|----------------------------x----0---||----------------------|-------------------------------------| End Rhy fig 2
Pre ChorusRhy fig 3|-------------------------------------|------------------------------------||-----------15------15---14-----------|-----------------------14-----------||---14------14------14---14-------14--|--------------14--14---14---0---0---||---14----------------------------14--|-----14--14---14h-16--------0---0---||----0------------------------0-------|-----15h-16-------------------------||-------------------------------------|------------------------------------|
|------------------------|---------------------------||--------------------3---|---3-----------------------||--------------------2---|---2------------------14---||--------------------0---|---0------------------14---||------------------------|-----------------------0---||------------------------|---------------------------| End Ehy fig 3Repeat Rhy fig 3
ChorusRhy fig 4|------------------------------------|---------------------------||---------15---14---15---14----------|-----------------------3---||---14----14---14---14---14---0---0--|--(0)------------------2---||---14------------------------0---0--|--(0)------------------0---||----0-------------------------------|---------------------------||------------------------------------|---------------------------|
|-------------------------|--------5------------5-----------||---3---------------------|--------5------------5-----------||---2-----------------2---|---2-----------------------------||---0-----------------2---|---2-----------------------------||---------------------0---|---0------------0------------0---||-------------------------|---------------------------------|
|------------------------------------|---------------------------||---------15---14---15---14----------|-----------------------3---||---14----14---14---14---14---0---0--|--(0)------------------2---||---14------------------------0---0--|--(0)------------------0---||----0-------------------------------|---------------------------||------------------------------------|---------------------------|
|------------------------------------|-----------------------||---3--------------------------------|-----------------------||---2----------7b(9)--r7---/6----2---|--(2)------------------||---0----------------------------2---|--(2)------------------||--------------------------------0---|--(0)------------------||------------------------------------|-----------------------| End Rhy fig 4Verse 2 Repeat Rhy fig 2
Pre Chorus 2 Repeat Rhy fig 3 Chorus 2 Repeat Rhy fig 4
InterludeRhy fig 5|----------------------|-----------------------|-----------------------||----------------------|--------------------3--|--3--------------------||---14--------------0--|--0-----------------2--|--2-----------------2--||---14--------------0--|--0-----------------0--|--0-----------------2--||----0-----------------|-----------------------|--------------------0--||----------------------|-----------------------|-----------------------|
|------------------------|------------------------|-----------------------||------------------------|------------------------|-------------------3---||---2---------------14---|---14----------------0--|--0----------------2---||---2---------------14---|---14----------------0--|--0----------------0---||---0----------------0---|----0-------------------|-----------------------||------------------------|------------------------|-----------------------|
|-----------------------|-------------------||---3-------------------|-------------------||---2----------------2--|--2\---------------||---0----------------2--|--2\---------------||--------------------0--|--0\---------------||-----------------------|-------------------| End Rhy fig 5
Solo Rhythm guitar repeat Rhy fig 4 twice
|---22b(24)---22b(24)--22b(24)--22b(24)--|--22b(24)-----------------15--17--||----------------------------------------|-----------r22--------------------||----------------------------------------|----------------------------------||----------------------------------------|----------------------------------||----------------------------------------|----------------------------------||----------------------------------------|----------------------------------|
|--19--17--15------17--15----------15------------------------------|----------------||--------------19----------19--17------19--17--15--17--15----------|----------------||----------------------------------------------------------18--16--|--18~~~~~~~~~---||------------------------------------------------------------------|----------------||------------------------------------------------------------------|----------------||------------------------------------------------------------------|----------------|
w/bar w/bar w/bar w/bar|--------------------------------|------------------------------||--------------------------------|------------------------------||---14b(18)---11b(14)~~~~~-------|--17b(21)----14b(17)~~~~~-----||--------------------------------|------------------------------||--------------------------------|------------------------------||--------------------------------|------------------------------|
let ring--| let ring--| let ring--||-------------------------------------------------------------|----------------------||---------------13------------------13------------------13/14~~~~~~~~~~~~~~---(14)\--||---14--12--------------14--12--------------14--12------------|----------------------||-----------14------------------14------------------14--------|----------------------||-------------------------------------------------------------|----------------------||-------------------------------------------------------------|----------------------|
|-----------------------------------------------------------||-----------------------------------------------------------||------------------------6/-----------------------------9/--||-----------------5h7h9------------------------9h10h12------||----------5h7h9----------------------9h10h12---------------||---5h7h9--------------------9h10h12------------------------|
|-----------------------------------------------||----------17---------17---------17-------------||---17/18------17/18------17/18------17/18--14--||-----------------------------------------------||-----------------------------------------------||-----------------------------------------------|
|--------------------------------------------------------|--------------------------||---15--14----------17--15--14------17b(19)-----17b(19)--|--17~~~~~~~~~~~~~~~\------||-----------16--14--------------16-----------------------|--------------------------||--------------------------------------------------------|--------------------------||--------------------------------------------------------|--------------------------||--------------------------------------------------------|--------------------------|
|-------------17-------------------17------------------17-----------------------------||----------17----20p17----------17----20p17---------17------------17------------------||--19b(21)--------------19b(21)-------------19b(21)-------19b(21)----20p17---------17-||--------------------------------------------------------------------------19b(21)----||-------------------------------------------------------------------------------------||-------------------------------------------------------------------------------------|
|----------------------------------------------------------------------------------||--20p17---------17-20p17----------20p17----------20p17---------17-17-20p17----17--||--------19b(21)----------19b(21)--------19b(21)--------19b(21)-------------19-----||----------------------------------------------------------------------------------||----------------------------------------------------------------------------------||----------------------------------------------------------------------------------|
|--20-19-17-19p17----------------------------------------------------|--------------||------------------20-18-17-18p17---------------------------20b(22)~~~~~~~~~~~~~~---||----------------------------------19-17-16-17p16--------------------|--------------||--------------------------------------------------19---x------------|--------------||--------------------------------------------------------------------|--------------||--------------------------------------------------------------------|--------------|
Repeat Rhy fig 1 twice Chorus 3 Repeat Rhy fig 4
Guitar outro|-----------------------|----------------------------|--------------------||-----------------------|----------------------------|--------.-----------||-------7b(9)~~~--------|-----------12b(14)~~~~~-----|----------/---------||-----------------------|----------------------------|---------/-.--------||-----------------------|----------------------------|--------------------||-----------------------|----------------------------|--------------------|
|--------------------------------------------|----------------------------||--------------------------------------------|----------------------------||-------------14--16b(18)-r16--14--16b(18)---|----(16)~~~~~~~~~~~~~~------||-----14--16---------------------------------|----------------------------||--------------------------------------------|----------------------------||--------------------------------------------|----------------------------|
|--------------------------------------|--------------------------------||---17b(19)---r17---14-----------------|---------------------8b(10)-----||-----------------------14b(16)--r14---|---(14)~~~~---------------------||--------------------------------------|--------------------------------||--------------------------------------|--------------------------------||--------------------------------------|--------------------------------|
|-----------------------------------------------------||---8b(10)------8--5----------------------------------||---------------------7--7b(10)--r7--5-----7--5b(7)---||---------------------------------------7-------------||-----------------------------------------------------||-----------------------------------------------------|
|-------------------------------------|-------------------------------|||-------------------------------------|-------------------------------|||---r5--------------------------------|--------------------------14\--|||-------7p-5------------------7-------|---5~~~~~~~~~~~~~---------14\--|||-------------7p-5p-3p-0--/7------7---|---------------------------0\--|||-------------------------------------|-------------------------------||
Tab Explanations
|--1h3---| Hammer on|--------|
|--7p5---| Pull off|--------|
|--7b(8)-| Bend 1/2 step|--------|
|--7b(9)-| Bend 1 step|--------|
|--7~~~~-| Vibrato|--------|
|---r7---| Release|--------|
|--3/6\7-| Slide|--------|
Tap to rate this tab
 
# A B C D E F G H I J K L M N O P Q R S T U V W X Y Z