Poison - Greatest Hits 1986-1996 tab

Sorry i felt sleepy tabbin whole album so if som1 wants the tabs left it mail me
but here are all important songs


the tunin of all poison songs is 1 step down
all the songs

so it's me (Ree-wah-j)Riwaj

mail me or comment on
riwaj_dustnbones@hotmail.com
poison_greatest_fan@hotmail.com
hysteria_defleppard_feelings@yahoo.com

=============================================================================


Bret Michaels-rhytm,vocal
Rikki Rockett-drums
Bobby Doll-piano,bass
C.C. De Ville-lead

1.
nothin but a good time


BRET
intro

D#||-----|-------------------------------|A#||-14--|--14----15--14--15--14--0--14--|F#||-14--|--14----14--14--14--14--0--14--|C#||-14--|--14----16--14--16--14--0--14--|G#||-----|-------------------------------|D#||-----|-------------------------------|
---------------------------3--|-----------------2--|----------------15--14--0--3--|--------------3--3--|------------14--14--14--0--0--|--------------0--2--|----14--14--14--16--14--0--0--|--------------0--0--|----15--16-----------------x--|--------------------|---------------------------3--|--------------------|at the last time of intro only
---------------------------------------------------|---------------------------------------------------|---2--2--2--2--------------------------------------|---2--2--2--2--------------------------------------|---0--0--0--0--------------------------------------|---------------------------------------------------|
guitar 2 c.c. lead
------------------------------------------------------------------|----------14----14--------14----14~~------14-----x--------0-------|----------14-16-14--------14--x-14~~------14-16-14--/x(0)-0-------|----------14-14-14--16/17-14--x-----15-16-14-16-14--/x(0)---------|-x-x--------------------------------------------------------------|-x-x-22/----------------------------------------------------------|
A chord--14-14-14-14--------------------------------------|--15-15-15-15-----5~r3------4b---------------------|-----------14-14/--------------2~~~~--2-(2)fade~~--|---------------------------------------------------|---------------------------------------------------|---------------------------------------------------|
after intro finished verse:-
----------------------|------------------------3---2-|--14----14/-----------|----14--15----15--14----3---3-|--14----14/-----------|----14--14----14--14----0---2-|--14----14/-----------|----14--16----16--14----0---0-|----------------------|------------------------x-----|----------------------|------------------------3-----|
riff&chorus
D#||-----|-------------------------------|A#||-14--|--14----15--14--15--14--0--14--|F#||-14--|--14----14--14--14--14--0--14--|C#||-14--|--14----16--14--16--14--0--14--|G#||-----|-------------------------------|D#||-----|-------------------------------|
---------------------------3--|-----------------2--|----------------15--14--0--3--|--------------3--3--|------------14--14--14--0--0--|--------------0--2--|----14--14--14--16--14--0--0--|--------------0--0--|----15--16-----------------x--|--------------------|---------------------------3--|--------------------|
solo:-
--22b-------22b---22b---22b---|--22r---------------------17-|------------------------------|----------22~-------19/20----|------------------------------|-----------------------------|------------------------------|-----------------------------|------------------------------|-----------------------------|------------------------------|-----------------------------|
--19-17-------17----------------------------------|--------------------|--------20-19----20-19p17-20-19-17----17----------|--------------------|-----------------------------------19----18-18p16-|--18~---------------|--------------------------------------------------|--------------------|--------------------------------------------------|--------------------|--------------------------------------------------|--------------------|
------------------------|-----------------------|------------------------|--17b------------------|--17----17b-14----------|----------17--------0--|------------------------|-----------------------|------------------------|-----------------------|------------------------|-----------------------|
------------------------------------------|----------------------|------------------------------------------|----------------------|-----------17~-----------17~-----------17/|--18~-----------x--0--|--19p17---------19p17---------19p17-------|----------------x-----|--------19------------19------------19----|----------------x-----|------------------------------------------|----------------------|
-------------------------------------------|-------------------------------------------|-----------------5h7h9-------------6h7h9/--|-----------4h5h7-------------5h7h9---------|-----4h5h7-------------5h7h9---------------|--5----------------------------------------|
--------17----------------17----------------|-----------------17----------------17-------|--17h18----17h18----17h18----17h18----------|--------------------------------------19~---|--------------------------------------------|--------------------------------------------|
--------------------------------------|------------------------|--15p14-------17-15-14----17b---17b---|--17~-------------------|--------16-14----------16-------------|------------14/------0--|--------------------------------------|------------14/---x--0--|--------------------------------------|------------------x-----|--------------------------------------|------------------------|
------17-----------17-----------17------------------------|---------20p17--------20p17--------20p17------17h20p17----|--19b----------19b----------19b----------19------------19b|----------------------------------------------------------|----------------------------------------------------------|----------------------------------------------------------|
-----------------------------------------------------|--20p17----20p17----20p17----20p17----17-20p17----17-|--------19b------19b------19b------19b---------19b---|-----------------------------------------------------|-----------------------------------------------------|-----------------------------------------------------|
--20-19-17-19-17-----------------------------------------------------|-----------------20-19p17-17h19p17-17----------------------------20~-|--------------------------------------19-17-17h19p17-17-16-----------|---------------------------------------------------------------------|-----------------------------------------------------------19/20-----|---------------------------------------------------------------------|
outro:-
------|------|------|------|------|------|------|------|----------------------|------|------|------|------|------|------|------|------|----------------------|------|------|------|------|------|------|------|------|----------2~----------|------|------|------|------|------|------|------|------|--------x-------------|------|------|------|------|------|------|------|------|------x---------------|------|------|------|------|------|------|------|------|----------------------|
---------------------|------------------|--------------------------------|----------------x----|------------------|--------------------------------|------14~-------x----|------------------|----------14--16--16r---14--16b-|---------------------|------------------|----14/16-----------------------|---------------------|------------------|--------------------------------|---------------------|------------------|--------------------------------|
-------------------------|----------------------------|-------------------|-------------------------|------17b---17--14----------|----------------8~-|----16r---16b---16r---x--|--------------------16b-14~-|-------------------|-------------------------|----------------------------|-------------------|-------------------------|----------------------------|-------------------|-------------------------|----------------------------|-------------------|
-----------------------------------|------------------------------|------8r---8-7-5-------------------|------------------------------|-----------------7r--5---7p6p5h6p5-|------------------------------|-----------------------7-----------|--7--------------7---5~-------|-----------------------------------|-----7-6-5-4---4--------------|-----------------------------------|-------------5-----5----------|
--------------------||--------------------||--------------------||--0/5/--------------||--------------------||--------------------||
2.Talk Dirty To me
intro----------------------------------|---------------------------------|-----------|----------------------------------|---------------------------------|-----------|-5---------5---------5----5\------|-7---------7--------7----7-\-----|-11/12-----|-5---------5---------5----5\------|-7---------7--------7----7-\-----|-11/12-3---|times-3---------3---------3----3\------|-5---------5--------5----5-\-----|--9/10-----|----------------------------------|---------------------------------|-----------|
---------------------------------------------------|---------------------------------------------------|---------------------------------------------------|-x-x-/-x-x/-5--------------------------------------|-x-x-/-x-x/-5--------------------------------------|-x-x-/-x-x/-3--------------------------------------|
verse
----------|----------------------------|----------------------------------------|----------|----------------------------|----------------------------------------|----------|----------------------------|----------------------------------------|--5-------|---------------5-------------|---------------------------------------|--5--5--5-|-5--5---5--5---5---5--5---5-|--5-5-5-5-------------------------------|--3--3--3-|-3--3---3--3---3---3--3---3-|--3-3-3-3-------------------------------|I nev-er
---------------------------------------------------|---------------------------------------------------|--7-------------7----------------------------------|--7-7-7-7-7-7-7-7-7-7-7-7-7-7----------------------|--5-5-5-5-5-5-5-5-5-5-5-5-5-5----------------------|---------------------------------------------------|
should but I like
c.c.at the riff--------------10-----------------------------------|---------------------------------------------------|-------10h11~~----11p1o----------------------------|-------------------------12------------------------|---------------------------------------------------|---------------------------------------------------| yes i hav u
just be4v 1st chorus
---13p10 10~~--------------------------------------|---------------13b-13b-13b-------------------------|---------------------------------------------------|---------------------------------------------------|---------------------------------------------------|---------------------------------------------------|
chorus:-----------------------------------|---------------------------------|-----------|----------------------------------|---------------------------------|-----------|-5---------5---------5----5\------|-7---------7--------7----7-\-----|-11/12-----|-5---------5---------5----5\------|-7---------7--------7----7-\-----|-11/12-3---|times-3---------3---------3----3\------|-5---------5--------5----5-\-----|--9/10-----|----------------------------------|---------------------------------|-----------|
end of chorus----------------------------------------------------------|----------------------------------------------------------|--5-5-5-5-7-7-7-7--9--5--7-------------------11/12--------|--5-5-5-5-7-7-7-7--9--5--7-------------------11/12--------|--3-3-3-3-5-5-5-5--7--3--5-------------------9-/10--x-----|3times----------------------------------------------------------| talk dirty to me
2nd chorus :- c.c.'s guitar
------------------|------------|------------|------------------|--------------|------------------|------------|------------|------------------|--------------|-12---------------|-7----------|-7----------|-14---------------|-12-----------|-12-------12-14-12|-7-----7-9-7|-7-----7-9-7|-14-------14-16-14|-12------12---|----13h14---------|---8h9------|---8h9------|----15h16---------|----13h14-----|------------------|------------|------------|------------------|--------------|
------|-----------------------------------------------------------------------|------|-------------13b-13b-13b-13b-------------------------------------------|------|-7---------------------------------------------------------------------|-14-12|-7-----7-9-7-----------------------------------------------------------|------|---8h9-----------------------------------------------------------------|------|-----------------------------------------------------------------------|
then chorus solo:-
----------------|-------10-------------13p12p10---10----------13p12p10----10--|----------------|----------10-13b-13b----------13----13-12-13----------13-----|-7/-------------|-10h11-------------------------------------------------------|----------------|-------------------------------------------------------------|----------------|-------------------------------------------------------------|----------------|-------------------------------------------------------------| Bridge 8 times 2nd guitar solo
----------13p12p10------------------------------------------------13-15-13----|-13-12-13----------13-12p10-12------------------------------------------------|-------------------------------12br10-12-11-10--------------------------------|-----------------------------------------------12-11-10--------12-------------|--------------------------------------------------------12-11-----------------|------------------------------------------------------------------------------|
----13-17-13-15-13----13-17-13-17p15p13---15p13p12----13p12p10----------------|-15----------------15------------------17----------15----------13-12-10-------|------------------------------------------------------------------------12----|------------------------------------------------------------------------------|------------------------------------------------------------------------------|------------------------------------------------------------------------------|
----------20b-20--------------------------------------------------------------|---------------------------17-----17-----17-----17-----17-----17-----19-------|-10--11v--------------19b----19b----19b----19b----19b----19b----21b----21b----|------------------------------------------------------------------------------|------------------------------------------------------------------------------|------------------------------------------------------------------------------|
------------------------------------------------------------------------------|-19-----19-----19--------13b--13-10-------------------------------------------|---21b----21b----21b----------------12-10h12p10----12-11-10-------------------|------------------------------------------------12----------12-11-10----------|---------------------------------------------------------------------12-11----|------------------------------------------------------------------------------|
---|--13p10----10-------------------------------------------------------------|---|--------13----13-10-13p10----10-------------------------------------------|---|--------------------------12----12-10-12p10----12-11v---------------------|-12|--------------------------------------------12----------------------------|---|--------------------------------------------------------------------------|---|--------------------------------------------------------------------------|
3.i wont forget u well at last i found out that a keyboard is used in this song well seem so, might be guitar but......anyway well if any1 needs the keyboard part in guitar i can provide them. well it's easy. intro:-
---------------------------------------------------|----8-10-10^-8-10^r8----10p8-8~~~------------------|--9-------------------9----------------------------|---------------------------------------------------|---------------------------------------------------|---------------------------------------------------|
note: strictly recommended for (rhytm guitar) ------------------------------ (it is very necessary to play Cadd9 in the chorus ,for perfect accuracy) |=====================================================================| | Cadd9 is played only in the chorus | |=====================================================================| after intro: guitar1 (G X Cadd9 X Em X D) X 2
-------------3-----------|--------------0-----------|----------------3-----3--|--------1--------1-----1--|-------0-----------0-----|-----------0--------0-----|----------0--------------|-----2--------------------|----2--------------------|--3-----------------------|-3-----------------------|--------------------------|
--------------0-----------|--------------2-----------|-----------------0-----0--|--------3--------3-----3--|--------0-----------0-----|-----2-----2--------2-----|-----------2--------------|--0-----------------------|-----2--------------------|--------------------------|--0-----------------------|--------------------------|
2nd time the chords are played2nd guitar:|----10---10------------|---10---10----------------------------||-10~--10~--------------|10~--10~--10-10~~~|let-ring-----------||-----------9-----------|------------------|-7-----------------||-------------9~--10~---|--------------------------------------||-----------------------|--------------------------------------||-----------------------|--------------------------------------|
verse Em D-3------------------|--------------0-----------|--------------2-----------|-3------------------|-----------------0-----0--|--------3--------3-----3--|-0------------------|--------0-----------0-----|-----2-----2--------2-----|-0------------------|-----------2--------------|--0-----------------------|-2------------------|-----2--------------------|--------------------------|-3------------------|--0-----------------------|--------------------------|
C--------------0-----------|--------------------------|--------1--------1-----1--|--------1-----------1-----|-----------0--------0-----|-----------0-----------0--|-----2--------------------|-----2-----------2--------|--3-----------------------|--3-----------2-----------|--------------------------|--------------------------|
--------------0-----------|--------------2-----------|-----------------0-----0--|--------3--------3-----3--|--------0-----------0-----|-----2-----2--------2-----|-----------2--------------|--0-----------------------|-----2--------------------|--------------------------|--0-----------------------|--------------------------|
--------------0-----------|--------------------------|--------1--------1-----1--|--------1-----------1-----|-----------0--------0-----|-----------0-----------0--|-----2--------------------|-----2-----------2--------|--3-----------------------|--3-----------2-----------|--------------------------|--------------------------|
--------------0-----------|--------------0-----------|--------1--------1-----1--|--------1--------1-----1--|-----------2--------2-----|-----------2--------2-----|-----2--------------------|-----2--------------------|--0-----------------------|--0-----------------------|--------------------------|--------------------------|
--------------0-----------|-----------3--2-----------|--------1--------1-----1--|--------3--------3-----3--|-----------0--------0-----|-----2--------------2-----|-----2--------------------|--0-----------------------|--3-----------------------|--------------------------|--------------------------|--------------------------|
VERSES 1:(guitar 1&2) ======== Em D Late at night i close my eyes C Bm n think of how things could have been
end of each co verse---------------------------------------------------|---------------------------------------------------|---5-----------------------------------------------|--------5--4---------------------------------------|---3----------2------------------------------------|---------------------------------------------------|
Em n when i look back C Bm i remember some words u had said to me RIFF:(guitar1&2)
--------------0-----------|--------------0-----------|--------1--------1-----1--|--------1--------1-----1--|-----------2--------2-----|-----------2--------2-----|-----2--------------------|-----2--------------------|--0-----------------------|--0-----------------------|--------------------------|--------------------------|
--------------0-----------|-----------3--2-----------|--------1--------1-----1--|--------3--------3-----3--|-----------0--------0-----|-----2--------------2-----|-----2--------------------|--0-----------------------|--3-----------------------|--------------------------|--------------------------|--------------------------|
Am it's better to be lost at love C D than never to be loved, at all same as intro pluggin ----------------- CHORUS:(guitar 1&2) ======= G |i won't forget u baby | Cadd9 |(i won't forget u) | Em D |even though i Could | G |i won't forget u baby | Cadd9 |(i won't forget u) | Em D |even though i should, ------------------ (YEAH....) VERSE 2(same as above)
At the riff:(guitar2)well this 1's by the keyboard:-|--------------|----------------------------||--------------|-10---12-13---15------------||--------------|----------------------------||--------------|----------------------------||--------------|----------------------------||--------------|----------------------------|
riff(same as above) Chorus bridge(same as riff) solo:
--15------17----15----19--|--(19)(19)~(19)---|--15------17----15--------|--------------------------|------------------|--------------------------|--------------------------|------------------|----------------------14b-|--------------------------|------------------|--------------------------|--------------------------|------------------|--------------------------|--------------------------|------------------|--------------------------|
----------------------------|--15------17----15--------|----------------------------|----------------------15--|----14b-14b-14-12-14--------|--------------------------|----------------------------|--------------------------|----------------------------|--------------------------|----------------------------|--------------------------|
----------------------------|------------------------------|----17----------------------|------------------------------|----------------------------|------------------------------|----------14----------------|------------------------------|--------------15----15--14--|--15----12----14--15--12------|----------------------------|--------------------------15--|
------------------------|------------------|------------------|------------------------|------------------|------------------|------------------------|------------------|------------------|------------------------|------------------|------------------|------------------------|------------------|------------------|--15------14--14\-------|------------------|------------------|
RIFFagain,(guitar2)|--------------|----------------------------||--------------|-10---12-13---15\-(12)------||--------------|----------------------------||--------------|----------------------------||--------------|----------------------------||--------------|----------------------------|
CHORUS TWICE OUTRO:
|-15-17-15-19--19~-19~-19~19~19~-|15-17-15--------------------------------||--------------------------------|----------------------------------------||--------------------------------|----------14^--14^-14--12~-14-----------||--------------------------------|----------------------------------------||--------------------------------|----------------------------------------||--------------------------------|----------------------------------------|
|----10---10---------------10---10-----------------------------||-10~--10~--------------10~--10~--10-10~~~-|let-ring-A-WHILE---||-----------9------------------------------|7b-----------------||------------9---10--------------------------------------------||--------------------------------------------------------------||--------------------------------------------------------------|
4.Every Rose Has It's thorn
intro:---3-3---3---3-3--3--3-3---|--------3---3-------3-3-3-3-|--3-3---3---3-3--3--3-3---|--------3---3-------3-3-3-3-|--0-0---0---0-0--0--0-0---|--0-----0---0-------0-0-0-0-|--0-0---0---0-0--0--0-0---|--2--2--2---2---2---2-2-2-2-|--------------------------|--3-----3---------3---------|----3---------------------|----------------------------|
--------3----------3-3--3-|--------3---3-------3-3-3-3-|--0-----3----------3-3--3-|--------3---3-------3-3-3-3-|--0-----0------0---0-0--0-|--0--0--0---0-------0-0-0-0-|-----0--0--------0-0-0--0-|--2--2--2---2-2-----2-2-2-2-|--------------------------|-----3-----------3----------|--------------------------|----------------------------|
RHYTM timing ============= verse:4/4 ===== co-verse:2/4 ======== riff: 4/4 ==== VERSE: ====== G Cadd9 We both lie silently still in the dead of the night G Although we both lie close together Cadd9 We feel miles apart inside co-verse: ========= G Cadd9 Was it something i said orsomething i did G Cadd9 did my words not come out right riff ==== D though i tried not to hurt u C though i tried But i guess thats why they say bobby starts keyboard/piano here:- (well as the chorus begins a kind of sound comes well i guess it's from piano any way the guitar tabbed goes like this mark the timin urself)
sounds dumb so better use keyboard-------------------|------------------|-------------------|------------------|-------------------|------------------|-------------------|------------------|-------------------|------------------|-------------------|------------------|--5~~~~~~~~~~~~~---|~~~~~~~~~~~--~~~~-|--5~~~~~~~~~~~~~---|~~~~~~~~~~~~~~----|-------------------|------------------|-------------------|------------------|-------------------|------------------|-------------------|------------------|
--------------------|-------------------|------------------|-------------------|--------------------|-------------------|------------------|-------------------|--------------------|-------------------|------------------|-------------------|--5~~~~---7---------|--5----------------|------------------|--5----------------|--------------------|-------------------|------------------|--3----------------|--------------------|-------------------|------------------|-------------------| This is from elec guitar byc.c.every cowboy
CHORUS: ====== G Every rose has its thorn Cadd9 just like every night has it's dawn G D C G just like every cowboy sings his sad sad song G Cadd9 Every rose has its thorn (THE Cadd9 is with a electric guitar ) the rhytm for solo:-
----------------3--------3-------|--------------3--3---3--3---|-------0--------0----------0-----|--------------3--3---3--3---|-------0--------0--0---------0---|--0-----0-----0--0---0--0---|----------0----------0---------0-|--2--2--------2--2---2--2---|-------------2---------2---------|--3--------3-------3------3-|--3------------------------------|----------------------------|
----------------3--------3-------|--------------3--3---3--3---|-------0--------0----------0-----|--------------1--1---1--1---|-------0--------0--0---------0---|--0-----0-----0--0---0--0---|----------0----------0---------0-|--2--2--------2--2---2--2---|-------------2---------2---------|--3--------3-------3------3-|--3------------------------------|----------------------------|
guitar inerlude/solo:================= G Cadd9 G-----------------------------------------------------15^-15~~-----------3~|-----15^-15~~-----------------13-12~h13r12~------------------12^12~~----3~|-14~~--------------12-14-12-----------------14^-14~---------------------0~|--------------12-14--------14-------------------------------------------0~|------------------------------------------------------------------------2~|------------------------------------------------------------------------3~|
verse2 ,riff and chorus(same as above) at the 2nd verse:-
n' i know that u'd be here right now|--2----3p-2-----2---0---3-2-0-----||--3----------3----3---3-------3---||--2-------------------------------||--0-------------------------------||----------------------------------||----------------------------------|
if i could have let u... chorus pluugin--0----0-0---0--0--0--0-0-|--------3--------------3--------|--1----1-1---1--1--1--1-1-|-----------3--------------3-----|--0----0-0---0--0--0--0-0-|-------------0--------------0---|--2----2-2---2--2--2--2-2-|------0--------0-----0--------0-|--3----------3-----3----3-|----2--------------2------------|--------------------------|--3--------------3--------------|
--------3--------------3--------|--------3--------------3--------|-----------3--------------3-----|-----------3--------------3-----|------0------0-------0------0---|-------------0--------------0---|----2----------2---2----------2-|------0--------0-----0--------0-|--3--------------3--------------|----2--------------2------------|--------------------------------|--3--------------3--------------|
--------3--------------3--------|--------3--------------2-3p2-----|-----------3--------------3-----|-----------3---------3-------3---|------0------0-------0------0---|------0------0-----2-----------2-|----2----------2---2----------2-|----2----------0-0---------------|--3--------------3--------------|--3------------------------------|--------------------------------|---------------------------------|
--------3--------------3--------|--------3--------------3--------|-----------1--------------3-----|-----------1--------------3-----|------0------0--------------0---|------0------0--------------0---|----2----------2-----0--------0-|----2----------2-----0--------0-|--3----------------2------------|--3----------------2------------|-----------------3--------------|-----------------3--------------|
bridge f# at the end before going back to Em--0----------------|--------------------|---------------------|--1----------------|--8-----------------|---------------------|--0----------------|--9--------7--------|--5------------------|--2----------------|--9--------7--------|--5--------5----4----|--3----------------|--7--------5--------|--3--------5----4----|-------------------|--------------------|-----------3----2----|
--------------------|-------------------|------------------|------------------|--8-----------------|-------------------|------------------|------------------|--9--------7--------|--5----------------|------------------|------------------|--9--------7--------|--5----------------|------------------|------------------|--7--------5--------|--3----------------|------------------|------------------|--0-----------------|-------------------|------------------|------------------|
bridge Em D Though it's been a while now C G F# i can still feel so much pain Em D like a knife that cuts you the wound heals C G...(CONTD..) but the scar that scar remains. solo: ===== (rhytm pattern== G Cadd9 X2) ( == Em D C G X2)
G(contd.) Cadd9 G Cadd9-------------------------------------------------------|---------13-12-13-12-15^----15b----------------15------|~~~~=straight bend then roll-----16^----------------14b---14^-12b\-----------------|-14b---------------------------------------------------|-------------------------------------------------------|-------------------------------------------------------|
change in chord progression ----------------------------------Cadd9 Em------------------------------------------------------|-13p12---12-------------------------------------------|-------14--14-12---14p12-14----11-12-11---------------|---------------------------------------------/14-12^--|------------------------------------------------------|------------------------------------------------------| fast
================== D C G Em D-------------------15---15---15-----------------------|----------------15^--15^--15^-------------------------|--11b-12b-----------------------11b-12b---------------|---------12/14^\------------------------12/14---------|------------------------------------------------------|------------------------------------------------------|
C G--------------17p15----15-19p15-17p15----15-19p15-17p15----15~15-|ring--------------------17----------------17----------------17-------|---------x-16----------------------------------------------------|-----------------------------------------------------------------|-----------------------------------------------------------------|-----------------------------------------------------------------|
after solo
--3-------------3--3-|--3-------------3--3-|--3-------------3-3-3-|--3-------------3--3-|--1-------------1--1-|--3-------------3-3-3-|--0---break-----0--0-|--0---break-----0--0-|--0-------------0-0-0-|--0-------------0--0-|--2-------------2--2-|--0-------------0-0-0-|--2-------------2--2-|--3-------------3--3-|--2-------------2-2-2-|--3-------------3--3-|---------------------|--3-------------3-3-3-|
--3-------------3-3-3-|--3-------------3-3-3-|--3-------------3--3-|--1-------------1-1-1-|--3-------------3-3-3-|--1-------------1--1-|--0-------------0-0-0-|--0-------------0-0-0-|--0-------------0--0-|--2-------------2-2-2-|--0-------------0-0-0-|--2-------------2--2-|--3-------------3-3-3-|----------------------|--3-------------3--3-|----------------------|----------------------|---------------------|
--3-------------3-3-3-|--3----------------|--|--3-------------3-3-3-|--1----------------|--|--0-------------0-0-0-|--0----------------|--|--0-------------0-0-0-|--2----------------|--|----------------------|--3----------------|--|----------------------|-------------------|--|
bass enters:=
---------------------------------------------------|---------------------------------------------------|---------------------------------------------------|---------------------------------------------------|--10/12-10---10------------------------------------|----------10----10\3-------------------------------|
outro:-
|-------------------||-------------------||---------14~-14p12-||-------------------||-------------------||-------------------|
----------------------------------------|------------------------------|-------------------------15-------------|------------13-12------15-----|--14~---11--12--13--14~-----14r14-14r14-|--12---------------14b----14r-|----------------------------------------|------------------------------|----------------------------------------|------------------------------|----------------------------------------|------------------------------|
--------------------|------------------------|--------------------|--------------------|------15~---15----------|--------------------|--12----------------|------------------14~---|--12----------------|--------------------|------------------------|--------------------|--------------------|------------------------|--------------------|--------------------|------------------------|--------------------|
--------------------------------------|--------------------------|--------------------13-12------15-----|------------------13-12---|-----------12h14-12--------14~----14~-|--12--------14----------12|-----12h14----------------------------|--------------------------|--------------------------------------|--------------------------|--------------------------------------|--------------------------|
--------------3-------------------------------------|--------------3-------------------------------------|--------------0-------------------------------------|--------0-----0-------------------------------------|------0-------2-------------------------------------|--0-2------0--3-------------------------------------|
5.Ride The Wind intro both guitars
D#||--------------------------|--------------------------|A#||--7--------7--------7-----|--8--------8--------8-----|F#||--7--------7--------7-----|--7--------7--------7-----|C#||--0--0--0--0--0--0--0--0--|--0--0--0--0--0--0--0--0--|G#||--------------------------|--------------------------|D#||--------------------------|--------------------------|
--------------------------|--------------------------|--7--------7--------7-----|--8--------8--------8-----|--7--------7--------7-----|--7--------7--------7-----|--0--0--0--0--0--0--0--0--|--0--0--0--0--0--0--0--0--|--------------------------|--------------------------|--------------------------|--------------------------|
--------------------------|--------------------------|--7--------7--------7-----|--8--------8--------8-----|--7--------7--------7-----|--7--------7--------7-----|--0--0--0--0--0--0--0--0--|--0--0--0--0--0--0--0--0--|--------------------------|--------------------------|--------------------------|--------------------------|
Tremelo--------------------------|--------------------^----|--------------------------|--7--------7--------7-----|--8--------8--------^----|--7--------7--------7-----|--7--------7--------7-----|--7--------7--------5~---|--7--------7--------7-----|--0--0--0--0--0--0--0--0--|--0--0--0--0--0--0-------|--0--0--0--0--0--0--0--0--|--------------------------|-------------------------|--------------------------|--------------------------|-------------------------|--------------------------|
--------------------------|----------------0--------|--------------3-----------|--8--------8--------8-----|-------------3-----3-----|-----------3-----3--------|--7--------7--------7-----|----------4--------------|--------5-----------5-----|--0--0--0--0--0--0--0-----|-------4-----------------|-----5-----------------5--|-----------------------0--|--2-------------------3--|--3-----------------------|--------------------------|-------------------------|--------------------------|
then the rythm gets divided This guitar holds this rhytm while the other starts
--------------------------|--------------------------|--3--3--3--3--3--3--3-----|-----------------------3--|--2--2--2--2--2--2--2-----|-----------------------4--|--0--0--0--0--0--0--0-----|-----------------------4--|-----------------------5--|--5--5--5--5--5--5--5--2--|-----------------------3--|--3--3--3--3--3--3--3-----|
--------------------------|--------------------------|--3--3--3--3--3--3--3-----|-----------------------3--|--2--2--2--2--2--2--2-----|-----------------------4--|--0--0--0--0--0--0--0-----|-----------------------4--|-----------------------5--|--5--5--5--5--5--5--5--2--|-----------------------3--|--3--3--3--3--3--3--3-----|
--------------------------|--------------------------|----------------0--------|--3--3--3--3--3--3--3-----|-----------------------3--|-------------3-----3-----|--2--2--2--2--2--2--2-----|-----------------------4--|----------4--------------|--0--0--0--0--0--0--0-----|-----------------------4--|-------4-----------------|-----------------------5--|--5--5--5--5--5--5--5--2--|--2-------------------3--|-----------------------3--|--3--3--3--3--3--3--3-----|-------------------------|
*here the rhytm changes--------------3-----------|--------------------|---------------------|-----------3-----3--------|--------------------|------3--------------|--------5-----------5-----|--4--------------2--|------2----2---------|-----5-----------------5--|--4--------------2--|------4----2------5--|--3-----------------------|--2--------------0--|------0----0------5--|--------------------------|--------------------|------------------3--|
-------------------|------------------|--------------------------|-------------------|------------------|--3--3--3--3--3--3--3-----|-------------------|------------------|--2--2--2--2--2--2--2-----|----------------5--|------------------|--0--0--0--0--0--0--0-----|----------------5--|------------------|-----------------------5--|----------------3--|------------------|-----------------------3--|
---------------------------|---------------------------------|-----------------------10--|--10--10--10--10--10--10--10-----|-----------------------7---|--7---7---7---7---7---7---7------|-----------------------0---|--0---0---0---0---0---0---0---5--|--5--5--5--5--5--5--5------|------------------------------5--|--3--3--3--3--3--3--3------|------------------------------3--|
---------------------------------------------------|---------------------------------------------------|---------------------------------------------------|--5--5--5--5---5---5-------------------------------|--5--5--5--5---5---5-------------------------------|--3--3--3--3---3---3-------------------------------|
another guitar for * part
------------------------|-----------------------|------3-------------3--|------------------------|------3-------------3--|------3--x-----3----3--|-------4~------4--x--2--|------2----2--2--x--0--|------0--x-----0----0--|--4----4~------4--x--2--|------4----2--2--x--0--|------0--x-----0----0--|--2---------2--------0--|------0----0-----x-----|------------2----------|------------------------|--------------------3--|--------------------3--|
------------------------|------------0-----------|------------0-----------|------3--x--------3-----|-------3-------3--------|---------------3--------|------0--x--------0-----|-------4----------4-----|-------4----------4-----|------0--x--------0-----|-------4----------------|-------4----------------|------------2--2-----2--|--2------------------0--|--0---------------------|------------------------|------------------------|---------------------4--|
-------0----------------|------3----3-----------|----------3-------x--3--|------3----3--3--3--3--|-------------4----x--0--|------0----0--0--0--0--|------------------x--0--|--------------0--0--0--|------------------------|-----------------------|--4------------------3--|-----------------3-----|
chorus:-
-|-----------------------|------------------------|-|--5------7----------8--|-------8-----5--7--7----|-|--7------7----------7--|-------7-----7--7--7----|-|--0------0----0--0--0--|----0--0--0--0--0--0----|-|-----------------------|------------------------|-|-----------------------|------------------------|
---------------------5--|--------7-----------8--|--------7-----5-----7----|-------3-------------8--|--------8-----------8--|--------8-----8-----8----|--4----4----2--------0--|--------0--0--0--0--0--|--0--0--0--0--0--0--0----|--4---------2-----0-----|-----------------------|-------------------------|--2---------0--0--0-----|-----------------------|-------------------------|------------------3-----|-----------------------|-------------------------|
-|-----------------------|------------------------|-|--5------7----------8--|-------8-----5--7--7----|-|--7------7----------7--|-------7-----7--7--7----|-|--0------0----0--0--0--|----0--0--0--0--0--0----|-|-----------------------|------------------------|-|-----------------------|------------------------|
---------------------5--|--------7-----------8--|--------7-----5-----7----|-------3-------------8--|--------8-----------8--|--------8-----8-----8----|--4----4----2--------0--|--------0--0--0--0--0--|--0--0--0--0--0--0--0----|--4---------2-----0-----|-----------------------|-------------------------|--2---------0--0--0-----|-----------------------|-------------------------|------------------3-----|-----------------------|-------------------------|
guitar 2 at chorus
------5-------|-------------------|---------5--------|--5-7---8-5-7-|-------------------|-----5-7---8-5-7--|--------------|-------------------|------------------|--------------|-------------------|------------------|--------------|-------------------|------------------|--------------|-------------------|------------------|
verses same again solo:- look carefully
guitar 1----------------------|------------------------|--------------------|----------------------|------------------------|----------22r-------|----------17b---17b---|--17r---------------14--|--------------------|----------------------|------------16----------|--------------------|----------------------|------------------------|--------------------|----------------------|------------------------|--------------------|
------------------------------------|--------------------------19b---19b---|--20~-------------------------------|--15-14-------17-15-14----------------|------------16-14-12----16-14-14-12-|--------16-14----------16-------------|---------------------16-------------|--------------------------------------|------------------------------------|--------------------------------------|------------------------------------|--------------------------------------|
--19r-----19--19----------|----------------------|--------------------------|----------------------|----------------------16r-|--------16--16~-------|--------------------------|----------------------|--------------------------|----------------------|--------------------------|----------------------|
----------------------------------------------|--------------------------------|----------------------------------------------|--------------------------------|----------------------------------------------|--------------------------------|--16-16-x-16--16-16-16-16-16-16-x-12-12-12-12-|--12-x-9-9-9-9-9--9/7-7-7-7/9---|----------------------------------------------|--------------------------------|----------------------------------------------|--------------------------------|
guitar 2----------------------|------------------------|----------21r-------|----------17b---17b---|--17r---------------14--|--------------------|----------------------|------------16----------|--------------------|----------------------|------------------------|--------------------|----------------------|------------------------|--------------------|----------------------|------------------------|--------------------|
--19~-------------------------------|--14-12-------15-14-12----22b---22b---|------------15-14-12----15-14-14-12-|--------15-14----------15-------------|---------------------14-------------|--------------------------------------|------------------------------------|--------------------------------------|------------------------------------|--------------------------------------|------------------------------------|--------------------------------------|
--22r-----22--22----------|----------------------|----------------------15r-|--------15--15~-------|--------------------------|----------------------|--------------------------|----------------------|--------------------------|----------------------|--------------------------|----------------------|
----------------------------------------------|--19-19-x-19--19-19-19-19-19-19-x-15-15-15-15-|----------------------------------------------|----------------------------------------------|----------------------------------------------|----------------------------------------------|
-------------------------------------------|--15-x-12-12-12-12-12--12/10-10-10-10/12---|-------------------------------------------|-------------------------------------------|-------------------------------------------|-------------------------------------------|till here both guitar plays the solo togetherwell if u r single then try the 1st one
--------7------------7-----------------------------|----------10-7-----7---10--------------------------|----9b---------9b----------------------------------|---------------------------------------------------|---------------------------------------------------|---------------------------------------------------|
---------7-------------7-----------|--10p7------10p7------10p7------10p7----7-|--7----7---7h10-7----7---10p7----8-|-------10p7------10p7------10p7------10---|----9b------------9b----------9b---|------------------------------------------|-----------------------------------|------------------------------------------|-----------------------------------|------------------------------------------|-----------------------------------|------------------------------------------|
--12p10----14p10----12p10----14p10----12p10-------|--------12-------12-------12-------12-------12p10-|--------------------------------------------------|--------------------------------------------------|--------------------------------------------------|--------------------------------------------------|
--12r--10-----12--10~---------|--------------------19--|----------12--------------12r-|---------10-------------|------------------------------|------------11~---------|------------------------------|------------------------|------------------------------|------------------------|------------------------------|------------------------|
--22p19----22p19----22p19----22p19----22p19----22p|--------19-------19-------19-------19-------19----|--------------------------------------------------|--------------------------------------------------|--------------------------------------------------|--------------------------------------------------|
--19----22-19-22b---22b---22~---|------------------|--22~-------22\-----|-----19-------------------------|------------------|--------------------|--------------------------------|------------------|--------------------|--------------------------------|------------------|--------------------|--------------------------------|------------------|--------------------|--------------------------------|------------------|--------------------|
interlude
--------0-----5-----3-----|--------0-----5-----3-----|-----5-----------------0--|-----3-----3--------------|--5--------5-----5--------|--4--------------4-----0--|--------------------------|--------------------------|--------------------------|--------------------------|--------------------------|--------------------------|
--------0-----7-----5-----|--------0-----7-----5-----|-----7-----------------0--|-----5-----------------0--|--7--------7-----7--------|--6--------6-----6--------|--------------------------|--------------------------|--------------------------|--------------------------|--------------------------|--------------------------|
--------0-----5-----3-----|--------0-----5-----3-----|-----5-----------------0--|-----3-----3--------------|--5--------5-----5--------|--4--------------4-----0--|--------------------------|--------------------------|--------------------------|--------------------------|--------------------------|--------------------------|
--------0-----7-----5-----|--------0-----7-----5-----|-----7-----------------0--|-----5-----------------0--|--7--------7-----7--------|--6--------6-----6--------|--------------------------|--------------------------|--------------------------|--------------------------|--------------------------|--------------------------|
--------0-----5-----3-----|--------0-----5-----3-----|-----5-----------------0--|-----3-----3--------------|--5--------5-----5--------|--4--------------4-----0--|--------------------------|--------------------------|--------------------------|--------------------------|--------------------------|--------------------------|
back to chorus outro
---------------------------------------------------|-------------2-------------------------------------|-------------3-------------------------------------|---5--5--5---0-------------------------------------|---5--5--5-----------------------------------------|---3--3--3-----------------------------------------|
====================================== Cry tough intro -
E|------|------|------------------|--------0-----------0-----||------|------|------------------|-----0-----0-----0-----0--||------|------|-drums------------|--------------1-----------||------|------|------------------|--------------------------||------|------|------------------|--------------------------||------|------|------------------|--0-----------------------|
Asus2-----------0--------0-----|--------0-----------0-----|--------0--------0-----0--|-----0-----0-----0-----0--|-----1--------1-----------|--------------2-----------|--2-----------------------|--------------------------|--------------------------|--0-----------------------|--------------------------|--------------------------|
B7sus2--------0-----------0-----|-----0-----0-----0-----0--|--------------2-----------|--------------------------|--2-----------------------|--------------------------|
guitar 3 well this chord for intro|---------------------|-------------------|------------------||---------------------|-------------------|------------------||--21/1---------------|--1----------------|------------------||--21/2---------------|--2---4---7--------|------------------||--19/2---------------|--2---4---7--------|------------------||-----0---------------|--0---2---5--------|------------------|
verse:- then pluggin goes on as intro E changes to power chord n the last chord changes
------------------------------------------------------|------------------------------------------------------|------------------------------------------------------|---2----------------7----------------9----------------|---2----------------7----------------9----------------|---0----------------5----------------7----------------|
pre-chorus:-
here the pre -chorus startsplugin E|--------------------------0-----------0-----||-----------------------0-----0-----0-----0--||--------------------------------1-----------||--------------------------------------------||--------------------------------------------||----------------0---------------------------|
--------0-----------0-----|----|----0------0----------------0-----------0--------|-----0-----0-----0-----0--|----|---0--0--0---0-----------0-----0-----0-----0-----|--1-----------1-----------|----|-2-----2---------------2----------2-----------2--|--------------------------|----|-------------------------------------------------|--------------------------|----|-------------------------------------------------|--------------------------|----|-------------------------------------------------|
guitar 2pluggin stops|---------------------||---------------------||---------------------||--4----4----------7--||--4----4----------7--||--2----2----------5--|
here continues pluugin--------------------|-------------------------|-------------------------|-----------------0--|-------------------------|-------------------------|-----------------1--|-------------------------|-------------------------|------7----------2--|-------------------------|-------------------------|------7-------------|-------------------------|-------------------------|------5-------------|----0--0--0--0--0--0--0--|--0--0--0--0--0--0--0----|
pluggin here again continues---------------------|--------------------|------------------|---------------------|--------------------|------------------|---------------------|--------------------|------------------|--4----4----------7--|------7----------9--|------------------|--4----4----------7--|------7----------9--|------------------|--2----2----------5--|------5----------7--|------------------|
chorus back to intro's both guitar riff
|-------------------|------------------||-------------------|------------------||--1----------------|------------------||--2---4---7--------|------------------||--2---4---7--------|------------------||--0---2---5--------|------------------|
chorus:-|--------0-----------0-----|--------0-----------0-----||-----0-----0-----0-----0--|-----0-----0-----0-----0--||--------------1-----------|--------------2-----------||--------------------------|--------------------------||--------------------------|--------------------------||--0-----------------------|--2-----------------------|
--------0-----------0-----|--------0-----------0-----|-----0-----0-----0-----0--|-----0-----0-----0-----0--|--------------2-----------|--------------2-----------|--------------------------|--------------------------|--0-----------------------|--2-----------------------|--------------------------|--------------------------|
|--------0-----------0-----|--------0-----------0-----||-----0-----0-----0-----0--|-----0-----0-----0-----0--||--------------1-----------|--------------2-----------||--------------------------|--------------------------||--------------------------|--------------------------||--0-----------------------|--2-----------------------|
--------0-----------0-----|--------0-----------0-----|-----0-----0-----0-----0--|-----0-----0-----0-----0--|--------------2-----------|--------------2-----------|--------------------------|--------------------------|--0-----------------------|--2-----------------------|--------------------------|--------------------------|
verse 2 n chorus same BRIDGE:-
at the last para ofchorus before bridgechord changeslike this.-------------------|-------------------|--------------------|-------------------|-------------------|--------------------|--2----------------|--4----------------|--9~~---------------|--2----------------|--4----------------|--11~---------------|--0----------------|--2----------------|--11~---------------|-------------------|-------------------|--9~~---------------|
---------------------|-------------------|--------------------|---------------------|-------------------|--------------------|---------------------|-------------------|--------------------|----------11----9----|--7----------------|----------7----6----|----------11----9----|--7----------------|----------7----6----|----------9-----7----|--5----------------|----------5----4----|
-------------------|------------------|-------------------|-------------------|------------------|-------------------|-------------------|------------------|-------------------|--4----------------|------------------|--9----------------|--4----------------|------------------|--9----------------|--2----------------|------------------|--7----------------|
now solo:-
-----------------------|------------------------|--------------7/---|--9--9----7------------|--9~-------9p-7h-9/-12~-|-------------------|---------------9--9----|------------------------|-------------------|-----------------------|------------------------|-------------------|-----------------------|------------------------|-------------------|-----------------------|------------------------|-------------------|
--0--------------------------|----------------------------|--10--10--9--9--7--7--9--10--|--10--10--9--9--7--7--9--9/-|--9---9---9--9--9--9--9--9---|--9---9---9--9--9--9--9--9--|-----------------------------|----------------------------|-----------------------------|----------------------------|-----------------------------|----------------------------|
--------19--------19/-------|--------------------|--19b-------19b-------------|--------------12/---|------------------------16~-|--------------------|----------------------------|--------------------|----------------------------|--------------------|----------------------------|--------------------|
------------------------14--16--17--|--19b-----19b---19b---19--|--0-------------16--17--------------|--------------------------|--16-16-16--18----------------------|--------------------------|------------------------------------|--------------------------|------------------------------------|--------------------------|------------------------------------|--------------------------|
--------------------|------------------|------------------|------------------|--17----------------|------------------|------------------|------------------|--------------------|------------------|------------------|------------------|--------------------|------------------|------------------|------------------|--------------------|------------------|------------------|------------------|--------------------|------------------|------------------|------------------|
outro:-
--19p16----16-19p16----16-19p16----16-19p16----16-|--------17----------17----------17----------17----|--------------------------------------------------|--------------------------------------------------|--------------------------------------------------|--------------------------------------------------|
--19p16----16-19p16----16-19p16----16-19p16----16-|--------17----------17----------17----------17----|--------------------------------------------------|--------------------------------------------------|--------------------------------------------------|--------------------------------------------------|
--19p16----16-19p16----16-19p16----16-19p16----16-|--------17----------17----------17----------17----|--------------------------------------------------|--------------------------------------------------|--------------------------------------------------|--------------------------------------------------|
--19p16----16-19p16----16-19p16----16-19p16----16-|--------17----------17----------17----------17----|--------------------------------------------------|--------------------------------------------------|--------------------------------------------------|--------------------------------------------------|
--19p16----16-19p16----16-19p16----16-19p16----16-|--------17----------17----------17----------17----|--------------------------------------------------|--------------------------------------------------|--------------------------------------------------|--------------------------------------------------|
--19p16----16-19p16----16-19p16----16-19p16----16-||--------17----------17----------17----------17----||--------------------------------------------------||--------------------------------------------------||--------------------------------------------------||--------------------------------------------------||
|------------------------|--------------7/---||--9~-------9p-7h-9/-12~-|-------------------||------------------------|-------------------||------------------------|-------------------||------------------------|-------------------||------------------------|-------------------|
--0---------------
Tap to rate this tab
 
# A B C D E F G H I J K L M N O P Q R S T U V W X Y Z