Porcupine Tree - The Seance tab version 2

Couldn't find a full tab for this song, so I went ahead to do it myself!

Guitar I (DADGBe) Acoustic
Guitar II (DADGBe) Acoustic
Guitar III (DADGBe) Effected Electric (Unsure on the effects used)


Intro:

Guitar I

|------------------------------------------------------------| |------------------------------------------------------------| |-7-----7-----7---7----7-5------5-----5-----5---5-----5-3----| |---7-----7---------7------5------3-----3---------3-------3--| |-5---5-----5---5-6---6------6--5---5-----5---5-4---4-------4| |------------------------------------------------------------|
Chord progression over the top after about 20 secs: Guitar II
|---------------------------------------------------------------------------||---------------------------------------------------------------------------||-7--7-7-7-7--7-7-7-7--7--7-7-7-7--5-5-5-5--5--5-5-5-5--5-5-5-5--5--5-5-5-5-||-7--7-7-7-7--7-7-7-7--7--7-7-7-7--7-7-7-7--3--3-3-3-3--3-3-3-3--3--3-3-3-3-||-5--5-5-5-5--5-5-5-5--6--6-6-6-6--6-6-6-6--5--5-5-5-5--5-5-5-5--4--4-4-4-4-||---------------------------------------------------------------------------|
|--------------||--------------||--3--3-3-3-3--||--3--3-3-3-3--||--4--4-4-4-4--||--------------|
From about 00:40 Guitar I
|--0--0-0-0-0--0-0-0-0--0--0-0-0-0--0-0-0-0--||--2--2-2-2-2--2-2-2-2--3--3-3-3-3--3-3-3-3--||--2--2-2-2-2--2-2-2-2--0--0-0-0-0--0-0-0-0--||--2--2-2-2-2--2-2-2-2--2--2-2-2-2--2-2-2-2--||--0--0-0-0-0--0-0-0-0-----------------------||--------------------------------------------|
Guitar III
|--------------------------------------------------------------||----2-----2-----2-----2----2-----3-----3-----3-----3-----3----||------2-----2-----2-----2----2-----0-----0-----0-----0-----0--||--2-----2-----2-----2-----2-----2----2-----2-----2-----2------||--------------------------------------------------------------||--------------------------------------------------------------|
From about 1:00: Guitar I
|------------------------------------------------------------| |------------------------------------------------------------| |-7-----7-----7---7----7-5------5-----5-----5---5-----5-3----| |---7-----7---------7------5------3-----3---------3-------3--| |-5---5-----5---5-6---6------6--5---5-----5---5-4---4-------4| |------------------------------------------------------------|
Guitar II
|---------------------------------------------------------------------------||---------------------------------------------------------------------------||-7--7-7-7-7--7-7-7-7--7--7-7-7-7--5-5-5-5--5--5-5-5-5--5-5-5-5--5--5-5-5-5-||-7--7-7-7-7--7-7-7-7--7--7-7-7-7--7-7-7-7--3--3-3-3-3--3-3-3-3--3--3-3-3-3-||-5--5-5-5-5--5-5-5-5--6--6-6-6-6--6-6-6-6--5--5-5-5-5--5-5-5-5--4--4-4-4-4-||---------------------------------------------------------------------------|
|--------------||--------------||--3--3-3-3-3--||--3--3-3-3-3--||--4--4-4-4-4--||--------------|
1:20: Guitar III (Would love to know what this effect is!) Let each chord ring
|--------------------------------||--------------------------------||--7~----7~--7-5--5~----5~--5-3--||--7~----7~-------3~----3~-------||--5~----6~-------5~----4~-------||--------------------------------|
2:00: (After the keyboard fiddling) Guitar I
|---------------------------------------------||---------------------------------------------||---------------------------------------------||--0-12-1414---------5-0h3--2-10h13-13131313--||--0-12-1414-------3-5-0h3--2-10h13-13131313--||--0-12-1414--3h4h5--5-0h3--2-10h13-13131313--|
My first tab at the age of 15 :) Just finished after an hour and didn't realise there was a template!! 98% sure this is right, any correction welcome!
Tap to rate this tab
 
# A B C D E F G H I J K L M N O P Q R S T U V W X Y Z