Powermad – Nice Dreams tab

Powermad - Nice Dreams


Exactly the same as the GuitarPro I posted. Just in plain text.


Tablature Legend
----------------
L - tied note
x - dead note
g - grace note
(n) - ghost note
> - accentuded note
NH - natural harmonic
AH - artificial harmonic
TH - tapped harmonic
SH - semi harmonic
PH - pitch harmonic
h - hammer on
p - pull off
b - bend
br - bendRelease
pb - preBend
pbr - preBendRelease
brb - bendReleaseBend
\n/ - tremolo bar dip
\n - tremolo bar dive
-/n - tremolo bar Release up
/n\ - tremolo bar inverted dip
/n - tremolo bar return
-\n - tremolo bar Release down
S - shift slide
s - legato slide
/ -  slide into from below or out of upwards
\ -  slide into from above or out of downwards
~ - vibrato
W - wide vibrato
tr - trill
TP - tremolo picking
T - tapping
S - slap
P - pop
< - fade in
^ - brush up
v - brush down


Here's the intro riff:

E|---------------------------------------|------------|B|---------------------------------------|------------|G|----7-11---7-12---7-11---7-11-9-7------|------------|D|--9------9------9------9----------11-7-|--9~--------|A|---------------------------------------|------------|E|---------------------------------------|------------|
Here's the verse riff:
|------------------------------|---------------------------------||------------------------------|---------------------------------||--4------4------7------7------|---------------------------------||--4------4------7------7------|--5------------------------------||--2--2-2-2--2-2-5--5-5-5--5-5-|--5------------------------------||------------------------------|--3--3-3-3-3-3-3-3-3-3-3-3-3-3-3-|
|------------------------------|-------------------------||------------------------------|-------------------------||--4------4------7------7------|-------------------------||--4------4------7------7------|--5----------5-----------||--2--2-2-2--2-2-5--5-5-5--5-5-|--5----------5-----------||------------------------------|--3--3-3-3-3-3-----------|
|------------------------------|-------------------------||------------------------------|-------------------------||--4------4------7------7------|-------------------------||--4------4------7------7------|--5----------5-----------||--2--2-2-2--2-2-5--5-5-5--5-5-|--5----------5-----------||------------------------------|--3--3-3-3-3-3-----------|
|------------------------------|----------------------------------||------------------------------|----------------------------------||--4------4------7------7------|--12-----------------12-----------||--4------4------7------7------|--12-----------------12-----------||--2--2-2-2--2-2-5--5-5-5--5-5-|--10--10-10-10-10-10-10-----------||------------------------------|----------------------------------|
Here's the solo:
|----------19~-----------|--19s--17----------------------||------------------------|-----------15----14------------||--16--------------------|-------------------------16-16-||------------------------|-------------------------------||------------------------|-------------------------------||------------------------|-------------------------------|
|-------------19-------19-----|--17~----------------||-----------------------------|---------------------||--14s--16--------------------|---------------------||-----------------------------|---------------------||-----------------------------|---------------------||-----------------------------|---------------------|
|----------19~-----------|--19s--17----------------------||------------------------|-----------15----14------------||--16--------------------|-------------------------16-16-||------------------------|-------------------------------||------------------------|-------------------------------||------------------------|-------------------------------|
|-------------19-------19-----|--17~----------------||-----------------------------|---------------------||--14s--16--------------------|---------------------||-----------------------------|---------------------||-----------------------------|---------------------||-----------------------------|---------------------|
|-----------------------------------------||-----------------------------------------||*----7-11---7-12---7-11---7-11-9-7------*||*--9------9------9------9----------11-7-*||-----------------------------------------||-----------------------------------------|
|---------------------------------------|-----------------------------||---------------------------------------|-----------------------------||----7-11---7-12---7-11---7-11-9-7------|--7h-9~-----7h-9~---------7--||--9------9------9------9----------11-7-|-----------------------------||---------------------------------------|-----------------------------||---------------------------------------|-----------------------------|
|------------------------------------||--------------------7~--------------||--9-<>9-br-----9p-7---------9p-7----||---------------------------------10-||------------------------------------||------------------------------------|
PM PM PM PM PM PM|--------------------------------------------||--------------------------------------------||--------------------------------------------||--9~----10p-9p-7-7-x----7-------------------||---------------------10---10-10-10-10-10-10-||--------------------------------------------|
|---------------------------|------------------------------||---------------------------|-----------8---7~---------7-7-||---------------------------|-------7-9---9----------------||---------------------------|--9-10------------------------||--10s-9-7--9--10--9--------|------------------------------||---------------------------|------------------------------|
|-------------------------------------------------||--7s-8-8-8-8s-10-10-10-10s-12-12-12-12s-13-13-13-||-------------------------------------------------||-------------------------------------------------||-------------------------------------------------||-------------------------------------------------|
|---------15~------------------||--13s-15----------------------||------------------------------||------------------------------||------------------------------||------------------------------|
|--15s-14--------------------------------------------||---------15-----------------------------------------||------------14--------------------------------------||---------------17s-16-14-12-------------------------||----------------------------15s-14-12----------12s--||--------------------------------------15-14-12------|
PM PM PM|-----------------------------------||-----------------------------------||-----------------4~--------4h-5p-4-||-----5-----4-----------------------||--7-----5--------------------------||--------------7--------------------|
|----------------------------------||----------------------------------||----4-5-------4-------7-4-x-4~----||--7-----7-5-4---4-----------------||------------------7-5-------------||----------------------------------|
|--------------------------------------------7-||--------------------------7-7-7h-8p-7-----8---||--4h-5p-4---4-------5-7-9-------------9-9-----||----------7---5-7-9---------------------------||----------------------------------------------||----------------------------------------------|
|--10-8-7------------------------------8-10-12----------10-12-14-||---------10-8-7-8-7s-8-10-8-7-8-10-12---------10-12-13----------||----------------------------------------------------------------||----------------------------------------------------------------||----------------------------------------------------------------||----------------------------------------------------------------|
|-----------12-15br----------------|--14~-----------------------||--12-13-15------------------------|-----------15-12-15b--------||----------------------------------|----------------------------||----------------------------------|----------------------------||----------------------------------|----------------------------||----------------------------------|----------------------------|
|-----------12-17p-15-14-17p-15-14s-15-19-17-15-14-17-15-14-------------||--12-13-15-------------------------------------------------17-15-13----||--------------------------------------------------------------------16-||-----------------------------------------------------------------------||-----------------------------------------------------------------------||-----------------------------------------------------------------------|
|--17br----------15-------------||-------------------17~---------||-------------------------------||-------------------------------||-------------------------------||-------------------------------|
Here's the second solo:
|------------------------------|---------------------------||------------------------------|---------------------------||--7h-9~------9----------6h-7p-|--6~-----------------------||------------------------------|---------------------4h-5p-||------------------------------|---------------------------||------------------------------|---------------------------|
|----------------------------|--------------------||----------------------------|--------------------||----------------------------|--------------------||--4-------------------------|--------------------||-----------4h-5p-4----------|--------------------||----------------------2h-3p-|--2~----------------|
|---------------------------------------------||---------------------------------------------||--------------6h-7p-6p-4---4-----------4-6-7-||--------4-5-7------------7---5-7-4-5-7-------||--4-5-7--------------------------------------||---------------------------------------------|
Use the whammy bar here:\1/ \1/\1/ \1/ \1/ \1/ \1/|-----------------12--10--7---------------------------||--------7-8h-10h-------------10--8---7---------------||--6-7-9----------------------------------9---7---6---||-----------------------------------------------------||-----------------------------------------------------||-----------------------------------------------------|
|----------------------------||----------------------------||----------------------------||--7-------------------------||-----7s--9~-----------------||----------------------------|
PM PM PM PM PM PM|------------------------------------------------||------------------------------------------------||--10s-12-x-x-12s-11-x-x-9s-12-------------------||------------------------------------------------||---9s-10-x-x-10s--9-x-x-7s--9-9--9--9--9--9--9s-||------------------------------------------------|
|------------------------------|-------------------------------------||------------------------------|--------------------7-8p-7-----------||-----------4-6-7-6~-----------|--------------6-7-9--------9~--------||-----4-5-7--------------------|--------5-7-9------------------------||------------------------------|--5-7-9------------------------------||------------------------------|-------------------------------------|
|-----------------------------------------------------------------------||-----------------------------------------------------------------------||--11h-12p-11-11-9----9h-11p-9----------11h-12p-11p-9-11-9----9h-11p-9--|h|------------------12----------12-11-12--------------------12-----------||-----------------------------------------------------------------------||-----------------------------------------------------------------------|
-----------------------------------------------------------------------|-----------------------------------------------------------------------|--11h-12p-11p-9-11-9----11h-12p-11p-9-11-9-9-11h-12p-11p-9-11-9----9-1-|---------------------12-----------------------------------------12-----|-----------------------------------------------------------------------|-----------------------------------------------------------------------|
--17-15-14----------19-17-15----------17-15-14----------19-17-15-------|-----------17-15-14----------19-17-15----------17-15-14----------19-17-|-----------------------------------------------------------------------|-----------------------------------------------------------------------|-----------------------------------------------------------------------|-----------------------------------------------------------------------|
--17-15-14---------------------------------|-----------17-15-14------------------------|--------------------16br--14-16------------|-------------------------------------------|-------------------------------------------|-------------------------------------------|
PM PM PM PM|-------------------------------------||-------------------------------------||--------------------16-18-19~--------||--------16-17------------------------||--------------16-17------------------||--14-15------------------------------|
|-----------14-15-17-22b--21~----21\----||--14-15-17-----------------------------||---------------------------------------||---------------------------------------||---------------------------------------||---------------------------------------|
Here's the outro:
|------------------------| Repeat 6x|------------------------||*-4--------------------*||*-4----4----5----------*||--2----4----5-----------||-------2----3-----------|
|------------------------||------------------------||--4----2----4-----------||--4----2----4-----------||--2----0----2-----------||------------------------|
Please rate this tab:
x1.0