Presidents Of The Usa – Naked & Famous tab

#

Date: Mon, 15 Apr 1996 13:05:45 +0100
From: David Worsley 


"Naked and Famous" by the Presidents of the USA
Transcribed by David Worsley

Tunings:
	Guitbass (effectively guitar) low to high: Db Ab Db
	Basitar  (effectively bass)   low to high: Db Ab

For those of you who don't know, the guitbass is a guitar with only 3 strings 
on it, and the basitar is a guitar (6-string) strung with only 2 bass strings.

Naked and Famous

Verse:|-----0-------0-------0---4-2--0-|-----0-------0-------0---4-2--0--||---0---0---0-------0---0--------|---0---0---0-------0---0---------||-0-------0-----4-5--------------|-0-------0-----4-5---------------|
|--------------------------------|---------------------------------||-12----------0-4-5-------9-11-12|-------------0-4-5-------9-11-12-|
Bridge:|-0--0--0--0--0---0--0--0--0--0---0--0--0--0--0---0--||-0--0--0--0--0---0--0--0--0--0---0--0--0--0--0---0--||-0--0--0--0--0---0--0--0--0--0---0--0--0--0--0---0--|
|----------------------------------------------------||-12-12-12-12-12--12-12-12-12-12--12-12-12-12-12--12-|
Chorus:|-0-0--0-4-5--5-5-0-0--0-4-5--5-5-0--| This bit has 2 rhythms. One as shown|-0-0--0-4-5--5-5-0-0--0-4-5--5-5-0--| with the slow chorus, one with the same|-0-0--0-4-5--5-5-0-0--0-4-5--5-5-0--| chords but faster with the guitar solos.
|------------------------------------||-12---0-4-5----5---12-0-4-5--5---12-|
Bit that leads into parts with guitar solos:|-----0-------0-------0---4-2--0-|-----0-------0-------0---4--------2--0-||---0---0---0-------0---0--------|---0---0---0-------0---0---------------||-0-------0-----4-5--------------|-0-------0-----4-5---------------------|
|--------------------------------|---------------15-14-----14h15h14-12-14||-12----------0-4-5-------9-11-12|---------------------------------------|
Coda: |12-12-x-x-x-x-10-10-x-x-5-5-x-x-x-x-3-3-x-x-0-0-x-x-x-x-3-3-x-x-5-5-x-x-x-x
-10-10||12-12-x-x-x-x-10-10-x-x-5-5-x-x-x-x-3-3-x-x-0-0-x-x-x-x-3-3-x-x-5-5-x-x-x-x
-10-10||12-12-x-x-x-x-10-10-x-x-5-5-x-x-x-x-3-3-x-x-0-0-x-x-x-x-3-3-x-x-5-5-x-x-x-x-10-10|
|---------------------------------------------------------------------------------||0--0--x-x-x-x-10-10-x-x-5-5-x-x-x-x-3-3-x-x-0-0-x-x-x-x-3-3-x-x-5-5-x-x-x-x-10-10|
You are on your own with the guitar noodles, just improvise or leave them out. Mail me at:- m.worsley@bbcnc.org.uk (David Worsley) Eat British Beef. From MHAB22A@prodigy.com Thu Apr 25 03:30:54 1996 Received: from post-office.nevada.edu (post-office.nevada.edu [131.216.1.11]) by mailhost.tcs.tulane.edu (8.6.12/8.5) with ESMTP id WAA35856; Wed, 24 Apr 1996 22:30:52 -0500 Received: from pimaia2w.prodigy.com (pimaia2w.prodigy.com [192.207.105.46]) by post-office.nevada.edu (8.6.12/8.6.4) with ESMTP id UAA20021 for ; Wed, 24 Apr 1996 20:28:46 -0700 Received: from mime3.prodigy.com ([192.168.253.27]) by pimaia2w.prodigy.com (8.6.10/8.6.9) with ESMTP id XAA65852 for ; Wed, 24 Apr 1996 23:26:30 -0400 Received: (from root@localhost) by mime3.prodigy.com (8.6.10/8.6.9) id XAA16660 for guitar@nevada.edu; Wed, 24 Apr 1996 23:23:55 -0400 Message-Id: <199604250323.XAA16660@mime3.prodigy.com> X-Mailer: Prodigy Internet GW(v0.9beta) - ae01dm04sc03 From: MHAB22A@prodigy.com (MR MICKEY F LASS) Date: Wed, 24 Apr 1996 23:23:55, -0500 To: guitar@nevada.edu Subject: here is some tab X-email-warning: As a cautionary note, there have been recent instances of people forging mail addresses. If you have any reason to believe this message is not authentic, please contact the listed sender or System Computing Services at (702) 895-4585. Status: RO Song: Naked and Famous Band: The Presidents of the USA Album: The Presidents of the USA Tuning: 6 to Db, 5 to Ab, and 4 to Db
Intro:4---------0------------0--------------0-----------------------5------0-----0-----0--------------0-----0-------4----2----06---0------------0--------4---5-------------------------------
The Rythm at the end: 4--0--0-----------4--5----------4------------------------12---10---5--
-35--0--0-----------4--5----------4------------------------12---10---5--
-36--0--0-----------4--5----------4------------------------12---10---5---3 |_4x_| |_4x_| |____4x______|
That is pretty much it except for a few stuff I did not get. E-mail me if ya want to talk about the Presidents or other stuff. E-mail address= MHAB22A@prodigy.com MIKE ZOMBO
Please rate this tab:
x1.0