Presidents Of The Usa - Naked And Famous tab

Band:Presidents of the United States of America
Song:Naked and Famous(solo)

Sup,finally got the solo for this great song,this isn't actually played by Dave but
rather by Soundgarden's Kim Thayil.
You need some serious chops for this one,so practice up and crank the distortion up and
rip the knob off!

Starts at 1:52

|-----------------------------------------------------------------||-----------------------------------------------------------------||------------------------12b15==(12)r(12)-10----10h12p10----10-10-||-12--12-10-12--12-12-12---------------------12----------12-------||--x--------------------------------------------------------------||--0--------------------------------------------------------------|
|----------------------10-10h13-10-13--13b15-----(13)--||-12------------/12------------------------------------||------------------------------------------------------||------------------------------------------------------||------------------------------------------------------||------------------------------------------------------|
|-------13p10-----13p10-----------------------------||---------------------------13p10----13p12----------||---------------------------------------------12p10-||---------------------------------------------------||---------------------------------------------------||---------------------------------------------------|
|----------------------------------------------------------------------------||--------------------------------------------------13-13-(13)-------------13-||-10-12b14==(12)-12pb14-(12)r12-10----10-12b14==(12)---------12pb14-(12)-----||----------------------------------12----------------------------------------||----------------------------------------------------------------------------||----------------------------------------------------------------------------|
|----------------------------------------------------------------------||----------------------------------------------------------------------||-12pb14-(12)r(12)p10--------------10------10--------------------------||---------------------12----10-12-----------------12-10-12p10----10-10-||-------------------------------------------------------------12-------||----------------------------------------------------------------------|
|-------------------------------------------------||-------------------------------------------------||-------------------------------------------------||-------------------------------------------------||-------------------------------------------------||-10h12-12-12-12-12-12-12-12-12-12-12-12-12-12-12-|
|-------------------------------||-------------------------------||-------------------------------||-10--x-x-12---(12)-----10------||-------------------------------||-------------------------------|
|----------------------------------------||----10-----------13-----(13)-(13)-------||----10--------10-12b14==(12)r(12)-12-10-||-----------12---------------------------||----------------------------------------||-0--------------------------------------|
|--------------------------------------||-------------10---(10)----------------||-12p10----10-10---(10)----------------||-------12--------------------/12\-----||--------------------------------------||--------------------------------------|
|----------------------------------------|-----------------------------------||--------10-------------------------13---|---------13---------------13-13b15-||--------10----------10-12-12pb14==(12)--|-12pb14-(12)--12pb14-(12)r---------||-----------------12---------------------|--------------------------12-------||----------------------------------------|-----------------------------------||--0-------------------------------------|-----------------------------------|
|-------13-13-(13)-----(13)-----(13)-(13)-10-13-|-10-------------------------||-15-15-----------------------------------------|------------13--------------||-----------------------------------------------|----------------------------||-----------------------------------------------|----------------------------||-----------------------------------------------|----------------------------||-----------------------------------------------|----------------------------|
After bridge solo:
|----------------------------------------------------------------------------||------------10-13p10------------10-13p10----------10-13p10---------1013p10--||-12b14-(12)----------12b14-(12)--------12b14-(12)-------12b14-(12)----------||----------------------------------------------------------------------------||----------------------------------------------------------------------------||----------------------------------------------------------------------------|
|----------------------------------------------------------------------------||--------------10-13p==10--------------10-13p==10---10-13p==10--10-13p==10---||-12b14-(12)--------------12b14-(12)-------------12b14-(12)----12b14-(12)----||----------------------------------------------------------------------------||----------------------------------------------------------------------------||----------------------------------------------------------------------------|
|-------------------------------------------10-10h13p10----10h13p10----||-13b15-(13)-------13b15==(13)r(13)b15-(13)-------------13----------13-||----------------------------------------------------------------------||----------------------------------------------------------------------||----------------------------------------------------------------------||----------------------------------------------------------------------|
|-------------------------------------||-10----------------------------------||----12p10----10-12--(12)b14===(12)---||----------12-------------------------||-------------------------------------||-------------------------------------|
|---------------------------------------------------------||---------12-12---12-13---(13)-----13-13b14==(13)r(13)----||---------------------------------------------------------||-9---9---------------------------------------------------||---------------------------------------------------------||---------------------------------------------------------|
|---------------------------------------|-----------------------||-10------------------10-------12S======|=15-18-(18)--(18)---x\-||---------------11h12-------------------|--------------------x\-||---------------------------------------|-----------------------||---------------------------------------|-----------------------||---------------------------------------|-----------------------|
|--------------------13-10------------10-13-10-------||-13---10---13-------------13b15-(13)----------13-10-||----------------------------------------------------||----------------------------------------------------||----------------------------------------------------||----------------------------------------------------|
|----------------------------------------------||-13-10------10-----------------9-10-12-9------||---------12---------------9-11-----------11-9-||----------------------------------------------||----------------------------------------------||----------------------------------------------|
|---------------------------------------------------|--------------||---------------------------------------------------|--------------||-(9)\---------------------10-12b14-(12)-------10---|-12-----------||--------------10h12-12-12---------------------10---|-12-----------||---------------------------------------------------|--------------||---------------------------------------------------|--------------|
|--------------------------------------|-------------------------------------||--------------------------13-12-11-10-|-------------------10-13-------------||--------------------------------------|-13-12-11-10-12-13-------12-10-------||--------------------------------------|-------------------------------------||--------------------------------------|-------------------------------------||--------------------------------------|-------------------------------------|
|---13b15==(13)-----------(13)r==|=(13)--(13)--------------------------------||--------------------------------|-------------------------------------------||--------------------------------|-------------------------------------------||--------------------------------|-------------------------------------------||--------------------------------|-------------------------------------------||--------------------------------|-------------------------------------------|
|-15------------------15b17=====(15)----(15)r|=(15)-15--------(15)-13----13--||--------------------------------------------|------------------------15-----||-----0--0--0-0--0--0------------------------|-------------------------------||--------------------------------------------|-------------------------------||--------------------------------------------|-------------------------------||--------------------------------------------|-------------------------------|
|------------------------------------------------|---------------------------||-(15)--13h15p13s12-12------12-12h13-13b15==(13)r|=(13)-12-(12)---10--10-----||------------------------------------------------|---------------------------||------------------------------------------------|---------------------------||------------------------------------------------|---------------------------||------------------------------------------------|---------------------------|
|-------------------------------------------------||-------------------------------------12b13==(12)r||---------------10---(10)--------10---12b13==(12)r||-----/12-------------------12---10---------------||---------------------------12--------------------||-------------------------------------------------|
|-10----------------------------------------------------||----13p10----13b15-(13)-------(13)---13p10----------10-||----------12-------------------------------12-10-12----||-------------------------------------------------------||-------------------------------------------------------||-------------------------------------------------------|
|-----------------------------:|-----------------------------:|-10---12b14==(12)r(12)-------:|-----------------------10----:|-----------------------------:|-----------------------------:
|-------------------------------:---------------:|-------------------------------:---------------:|-------------------------------:---------------:|-(10)--12p10h12p10h12p10h12----:-(12)----------:|-------------------------------:---------------:|-------------------------------:---------------:
|----------:---------------:--------------*||----------:---------------:--------------*||----------:---------------:--------------*||----------:---------------:--------------*||----------:-9----7h9p7-5--:--5-----------*||----------:-0----------0--:--0-----------*|
Damn,hell of a solo for a hell of a song and a great band. Got Drop a line to gtsrmike@yahoo.com
Tap to rate this tab
 
# A B C D E F G H I J K L M N O P Q R S T U V W X Y Z