Priestess - Shakes tab version 2

-------------|-------------|-------------|-----7-7-----|-7-5-5-5-7---|-5-3-----5---|
----------------------------------------------------------------------|----------------------------------------------------------------------|----------------------------------------------------------------------|----------------------------------------------------------------------|5-5-7-x12-(bend on the 6th time, then keep hitting it on the next 6th)|3-3-5-----------------------------------------------------------------|
-----------------------------------------------------|-----------------------------------------------------|-----------------------------------------------------|-----------------------------------------------------|7-5-77-7-5--9-7-5-77-7-5--9-7-5-77-5--9-7-5-77-7-5--9|5-3-55-5-3--7-5-3-55-5-3--7-5-3-55-3--7-5-3-55-5-3--7|
*Tremelo Pick*--------|-----------------------------|--------|---------|--------|-----------------------------|--------|---------|--------|-----------------------------|--------|---------|--------|-----------------------------|--------|---------|5-5-7-x7|5-5-7--12-11-10-9-8-7-6-5-4-3|5-5-7-x7|5-5-77777|3-3-5---|3-3-5------------------------|3-3-5---|3-3-55555|
-----------------------------------------------------|-----------------------------------------------------|-----------------------------------------------------|-----------------------------------------------------|7-5-77-7-5--9-7-5-77-7-5--9-7-5-77-5--9-7-5-77-7-5--9|5-3-55-5-3--7-5-3-55-5-3--7-5-3-55-3--7-5-3-55-5-3--7|
*Tremelo Pick*--------|-----------------------------|--------|---------|--------|-----------------------------|--------|---------|--------|-----------------------------|--------|---------|--------|-----------------------------|--------|---------|5-5-7-x7|5-5-7--12-11-10-9-8-7-6-5-4-3|5-5-7-x7|5-5-77777|3-3-5---|3-3-5------------------------|3-3-5---|3-3-55555|
-----------------------------------------------------|-----------------------------------------------------|-----------------------------------------------------|-----------------------------------------------------|7-5-77-7-5--9-7-5-77-7-5--9-7-5-77-5--9-7-5-77-7-5--9|5-3-55-5-3--7-5-3-55-5-3--7-5-3-55-3--7-5-3-55-5-3--7|
-----------|-----------|-----7-----|-7-5-7-7---|-7-5-5-7---|-5-3---5---|
*Solo*-----------------------|-----------------------|12b--12-13-12-10-12-10b|-----------------------|-----------------------|-----------------------|
----------------------------------------------------------------------|----------------------------------------------------------------------|7-5-8-7-5-10-9-7-12-11-10-11/17b-17b-17-21-19-17-19-21-17-17b-17-17/15|----------------------------------------------------------------------|----------------------------------------------------------------------|----------------------------------------------------------------------|
------------------------------------------------|------------------------------------------------|17-15-17-17-17-15-18-17-15-18-17-15-18-17-15-15b|------------------------------------------------|------------------------------------------------|------------------------------------------------|
-----------------------------------------------------------------------|-----------------------------------------------------------------------|13-15-16-15-13-15-13--13-11-10-8-7-13-15-13-16-15-19-17-19-18-19-19b/17|-----------------------------------------------------------------------|-----------------------------------------------------------------------|-----------------------------------------------------------------------|
(This part is hard to make out)------------------------------------------------------------------------------------|15-13-15-16-15-13-12-21b-21b-21b-21b-15-13-12-13-17b-17b/18b-18b-18-17-15-15-13-12-9|------------------------------------------------------------------------------------|------------------------------------------------------------------------------------|------------------------------------------------------------------------------------|------------------------------------------------------------------------------------|
-------------|-------------|-------------|-------------|7-5-77-7-5--9|5-3-55-5-3--7|
--------------------|--------------------|--------------------|-----7-7------------|-7-5-5-5-7--5-5555-7| x3-5-3-----5--3-3333-5|
-------------|-------------|-------------|-----7-7-----|-7-5-5-5-7---|-5-3-----5---|
------------------------------------|------------------------------------|------------------------------------|------------------------------------|7-5-77-7-5--9-7-5-77-7-5--9-7-5-77-5|5-3-55-5-3--7-5-3-55-5-3--7-5-3-55-3|
-----------------|-----------------|-----------------|-----------------|7-5-9999999---7-5|5-3-7777777---5-3|
Please do corrections on the solo. I counldn't really make it out clearly and I know it's not even 50 percent right.
Tap to rate this tab
 
# A B C D E F G H I J K L M N O P Q R S T U V W X Y Z