Primordial - Dark Song tab

h  hammer on
p  pull off
/ - slide up to note (pick first note only)

TUNING- D G D G A E

RIFF 1|--------10--------------------------8------------||------8---------------------------8--------------||----7---------------------------9----------------||--0---------------------------0------------------||-------------------------------------------------||-------------------------------------------------|
|--------0------------------------------|------0---0----------------------------|----7-------7------9h10-10-10-10p9-9-7-|--8-----------8----8-------------------|----------------0--0-------------------|---------------------------------------
(REPEAT RIFF 1 another 3 times)
|-------------------------------------------------||-------------------------------------------------||--7h9-9-9-9p7-7-6----7---------------------------||--8------------------8---------------------------||--0------------------0---------------------------||-------------------------------------------------|
RIFF 2a|--------------0--0--0-0-0-0-0-----------0-0--0--0--0-0------||--3--3-5--5-5-1-1--1-1-1-1-1-1/3--3--3-0-0--0--0--0-0-3-3--||--5--5-7--7-7-3-3--3-3-3-3-3-3/5--5--5-2-2--2--2--2-2-5-5--||--0--0-0-0-0-0-0--0-0-0-0-0-0----0--0-0-0--0--0--0-0-0-0--||--5--5-7--7-7-3--3--3-3-3-3-3-3/5--5--5-2-2--2--2--2-2-5-5--||--0--0-0--0-0-0--0--0-0-0-0-0-0---0--0-0-0--0--0--0-0-0-0--|
RIFF 2b (PLAY 3 TIMES)
|------------0-0--0--0--0-0-0-0-----------0-0--0--0--0-0------||--3/5--5--5-1-1--1--1--1-1-1-1-1/3-3--3-0-0--0--0--0-0-3-3--||--5/7--7--73-3--3--3--3-3-3-3-3/5--5--5-2-2--2--2--2-2-5-5--||--0---0--0-0-0--0--0--0-0-0-0-0----0--0-0-0--0--0--0-0-0-0--||--5/7-7--7-3-3--3--3--3-3-3-3-3/5--5--5-2-2--2--2--2-2-5-5--||--0----0--0-0-0--0--0--0-0-0-0-0----0--0-0-0--0--0--0-0-0-0--|
RIFF 3 (PLAY 4 TIMES,ON 4th REPEAT PLAY AS FAR AS *** THEN PLAY RIFF 4)|---------------------------------||-3/5-5-5-5-5-5-5-5-5-5-5-5-5-5-5-||-5/7-7-7-7-7-7-7-7-7-7-7-7-7-7-7-||-0---0-0-0-0-0-0-0-0-0-0-0-0-0-0-||-5/7-7-7-7-7-7-7-7-7-7-7-7-7-7-7-||-0---0-0-0-0-0-0-0-0-0-0-0-0-0-0-|
|--------------------------------------------------||-8--8--8--8--8--8--7--7--7--7-7--7--7/8--8--8----||-10-10-10-10-10-10-9--9--9--9-9--9--9/10-10-10---||-0--0--0--0--0--0--0--0--0--0-0-0--0----0--0----||-10-10-10-10-10-10-9--9--9--9--9-9--9/10-10-10---||-0--0--0--0--0--0--0--0--0--0-0-0--0----0--0----|
|---------------------------------||-3/5-5-5-5-5-5-5-5-5-5-5-5-5-5-5-||-5/7-7-7-7-7-7-7-7-7-7-7-7-7-7-7-||-0---0-0-0-0-0-0-0-0-0-0-0-0-0-0-||-5/7-7-7-7-7-7-7-7-7-7-7-7-7-7-7-||-0---0-0-0-0-0-0-0-0-0-0-0-0-0-0-|
***|----------------------------------------------------------------||-12--12--12--12--12--12--10--10--10--10--10--10-8---8---8---8--||-14--14--14--14--14--14--12--12--12--12--12--12--10--10--10--10-||-0---0---0---0---0---0---0---0---0---0---0---0---0---0---0---0--||-14--14--14--14--14--14--12--12--12--12--12--12--10--10--10--10-||-0---0---0---0---0---0---0---0---0---0---0---0---0---0---0---0--|
|---------------------------------||-3/5-5-5-5-5-5-5-5-5-5-5-5-5-5-5-||-5/7-7-7-7-7-7-7-7-7-7-7-7-7-7-7-||-0---0-0-0-0-0-0-0-0-0-0-0-0-0-0-||-5/7-7-7-7-7-7-7-7-7-7-7-7-7-7-7-||-0---0-0-0-0-0-0-0-0-0-0-0-0-0-0-|
|--------------------------------------------------||-8--8--8--8--8--8--7--7--7--7-7--7--7/8--8--8----||-10-10-10-10-10-10-9--9--9--9-9--9--9/10-10-10---||-0--0--0--0--0--0--0--0--0--0-0-0--0----0--0----||-10-10-10-10-10-10-9--9--9--9--9-9--9/10-10-10---||-0--0--0--0--0--0--0--0--0--0-0-0--0----0--0----|
|---------------------------------||-3/5-5-5-5-5-5-5-5-5-5-5-5-5-5-5-||-5/7-7-7-7-7-7-7-7-7-7-7-7-7-7-7-||-0---0-0-0-0-0-0-0-0-0-0-0-0-0-0-||-5/7-7-7-7-7-7-7-7-7-7-7-7-7-7-7-||-0---0-0-0-0-0-0-0-0-0-0-0-0-0-0-|
|-0-0-0-0-0-0-0-0-0-0-0-0-0-0-0-0-0-||-1-1-1-1-1-1-1-1-1-1-11-1-0-0-0-0-||-3-3-3-33-3-3-3-3-3-3-3-3-2-2-2-2-||-0-0-0-0-0-0-0-0-0-0-0-0-0-0-0-0-0-||-3-3-3-3-3-3-3-3-3-3-3-3-3-2-2-2-2-||-0-0-0-0-0-0-0-0-0-0-0-0-0-0-0-0-0-|
RIFF 4 (PLAY 4 TIMES)|----------------------------------------------------------------||-12--12--12--12--12--12--13--13--13--13--13--13--13--13-13--13-||-14--14--14--14--14--14--15--15--15--15--15--15--15--15--15--15-||-0---0---0---0---0---0---0---0---0---0---0---0---0---0---0---0--||-14--14--14--14--14--14--15--15--15--15--15--15--15--15--15--15-||-0---0---0---0---0---0---0---0---0---0---0---0---0---0---0---0--|
|----------------------------------------------------------------||-10--10--10--10-10--10--12--12--12-12--12--12-12--12-12-12-||-12--12-12--12--12-12--14--14--14-14--14--14--14-14--14--14-||-0---0---0---0---0---0---0---0---0---0---0---0---0---0---0---0--||-12--12--12--12--12--12--14--14--14--14-14--14--14--14--14--14-||-0---0---0---0---0---0---0---0---0---0---0---0---0---0---0---0--|
|----------------------------------------------------------------||-8---8---8---8--8---8---10--10--10-10--10--10-10--10-10-10-||-10--10-10--10--10-10--12--12--12-12--12--12--12-12--12-12-||-0---0---0---0---0---0---0---0---0---0---0---0---0---0---0---0--||-10--10--10--10--10--10--12--12--12--12-12--12--12--12--12--12-||-0---0---0---0---0---0---0---0---0---0---0---0---0---0---0---0--|
|----------------------------------------------------------------||-7---7---7---7---7---7---7---7---5---5---5---5---5---5---5---5--||-9---9---9---9---9---9---9---9---7---7---7---7---7---7---7---7--||-0---0---0---0---0---0---0---0---0---0---0---0---0---0---0---0--||-9---9---9---9---9---9---9---9---7---7---7---7---7---7---7---7--||-0---0---0---0---0---0---0---0---0---0---0---0---0---0---0---0--|
RIFF 5 (PLAY 4 TIMES)
|-10-10-10-10-10-10-10-10-10-10-10-10-10-10-10-10-||-8--8--8--8--8--8--8--8--8--8--8--8--8--8--8--8--||-7--7--7--7--7--7--7--7--7--7--7--7--7--7--7--7--||-7--7--7--7--7--7--7--7--7--7--7--7--7--7--7--7--||-7--7--7--7--7--7--7--7--7--7--7--7--7--7--7--7--||-0--0--0--0--0--0--0--0--0--0--0--0--0--0--0--0--|
|-8-8-8--8--8-8-8-8-8-8-8-8-8-8-8-8-||-8--8--8--8--8--8--8--8--8--8--8--8--8--8--8--8--||-9--9--9--9--9--9--9--9--9--9--9--9--9--9--9--9--||-7--7--7--7--7--7--7--7--7--7--7--7--7--7--7--7--||-7--7--7--7--7--7--7--7--7--7--7--7--7--7--7--7--||-0--0--0--0--0--0--0--0--0--0--0--0--0--0--0--0--|
|--------------------------------------------------------||--------------------------------------------------------||-7-7-7-7-7-7-7-7-7-7-7-7-7-7-7-9-9-10-10-10-10-10-10-10-||-8-8-8-8-8-8-8-8-8-8-8-8-8-8-8-8-8-8--8--8--8--8--8--8--||-0-0-0-0-0-0-0-0-0-0-0-0-0-0-0-0-0-0--0--0--0--0--0--0--||--------------------------------------------------------|
|------------------||------------------||-9-9-9-9-7-7-7-7--||-8-8-8-8-8-8-8-8--||-0-0-0-0-0-0-0-0--||------------------|
PLAY RIFF 3 THREE TIMES PLAY RIFF 5 SIX TIMES
|-----------------------------------------------------------------||-----------------------------------------------------------------||-9-9-9-9-9-9-9-9-7-7-7-7-7-7-7-7-9-9-9-9-9-9-9-9-7-7-7-7-7-7-7-7-||-8-8-8-8-8-8-8-8-8-8-8-8-8-8-8-8-8-8-8-8-8-8-8-8-8-8-8-8-8-8-8-8-||-0-0-0-0-0-0-0-0-0-0-0-0-0-0-0-0-0-0-0-0-0-0-0-0-0-0-0-0-0-0-0-0-||-----------------------------------------------------------------|
|-0-----------------||-------------------||-7-----------------||-8-----------------||-0-----------------||-------------------|
END
Tap to rate this tab
 
# A B C D E F G H I J K L M N O P Q R S T U V W X Y Z